Sound will begin in 5 seconds

Metallica-Master of Puppets

01234567891011121314151617181920212223
E
B
G
D
A
E
B
0 1 2 3 4 5 6 7 8 9 10 11 12 13 14 15 16 17 18 19 20 21 22 23
Song Science #1: How Pros Use 6 Chords to Write Hit Songs
(/) Slide Up  (\) Slide Down  (h) Hammer On  (p) Pull Off  (b) Bend (r) Release (v) Vibrato

Stave 1:

E|------------------------------------------------------------------------
B|------------------------------------------------------------------------
G|------------------------------------------------------------------------
D|---12-11-10-------------------12-11-10----------------------------------
A|-2--12-11-10-------------------12-11-10----------------------------------
E|-0--10-9--8--0-0-12-0-0-11-0-0-10-9--8---0-0-7-0-0-6-0-0-5-0-4-0-3-0-2-0-

Stave 2:

E|---------------------------------|---------------------------
B|---------------------------------|---------------------------
G|---------------------------------|---------------------------
D|---------------------------------|---------------------------
A|-----2-----3-----4-----3-----2-2-|-----2-----3-----4-----3-2-
E|-0-1---0-1---0-1---0-1---0-1-----|-0-1---0-1---0-1---0-1---0-

Stave 3:

E|---------------------------------|-------------------------------
B|---------------------------------|-------------------------------
G|---------------------------------|-------------------------------
D|---------------------------------|-------------------------------
A|-----2-----3-----4-4-4-3-3-3-2-2-|-----2-----3-----4-----3-----2-
E|-0-1---0-1---0-1-----------------|-0-1---0-1---0-1---0-1---0-1-0-

Stave 4:

E|-----------------------------------------------
B|-----------------------------------------------
G|-----------------------------------------------
D|-------------5/7-8\7\5-----------------5/7-5/7-
A|-------------5-7-8-7-5-----------------5-7-5-7-
E|-0-0-0-0-0-0-3-5-6-5-3-0-0-0-0-0-0-0-0-3-5-3-5-

http://www.guitartabcreator.com
Guitar Tab Creator is intended to store guitar tab created through the tool. It currently does not support in-line text editing. Any text you place in here will be lost. If you need to comment on your tab, please use the "Tab Notes" section located below.