Sound will begin in 5 seconds

Metallica-Enter Sandman

01234567891011121314151617181920212223
E
B
G
D
A
E
B
0 1 2 3 4 5 6 7 8 9 10 11 12 13 14 15 16 17 18 19 20 21 22 23
Song Science #1: How Pros Use 6 Chords to Write Hit Songs
(/) Slide Up  (\) Slide Down  (h) Hammer On  (p) Pull Off  (b) Bend (r) Release (v) Vibrato

Stave 1:

E|-------------|-------------|-------------|-------------|-------------|-------------
B|-------------|-------------|-------------|-------------|-------------|-------------
G|-----0-------|-----0-------|-----0-------|-----0-------|-----0-------|-----0-------
D|-------------|-------------|-------------|-------------|-------------|-------------
A|---7-------7-|---7-------7-|---7-------7-|---7-------7-|---7-------7-|---7-------7-
E|-0-----6-5---|-0-----6-5---|-0-----6-5---|-0-----6-5---|-0-----6-5---|-0-----6-5---

Stave 2:

E|-------------------|-------------------|-------------------
B|-------------------|-------------------|-------------------
G|-------------------|-------------------|-------------------
D|-------------------|-------------------|-------------------
A|---------------2/7-|---------------2/7-|---------------2/7-
E|-0-0-0-0-0-0-0-----|-0-0-0-0-0-0-0-----|-0-0-0-0-0-0-0-----

Stave 3:

E|---------------------------|-------------------|-------------------
B|---------------------------|-------------------|-------------------
G|---------------------------|-------------------|-------------------
D|---------------------------|-------------------|-------------------
A|---------------3-2---4/7---|-------3-2---4/7---|-------3-2---4/7---
E|-0-0-0-0-0-0-0-1-0-0-----6-|-0-0-0-1-0-0-----6-|-0-0-0-1-0-0-----6-

Stave 4:

E|----------------------|---------------------|---------------------|-----------------
B|----------------------|---------------------|---------------------|-----------------
G|----------------------|---------------------|---------------------|-----------------
D|----------------------|---------------------|---------------------|-5---4---4-5-4---
A|--------3-2---4/7-----|-------3-2---4/7-----|-------3-2---4/7-----|-5---4---4-5-4-2-
E|--0-0-0-1-0-0-----6-5-|-0-0-0-1-0-0-----6-5-|-0-0-0-1-0-0-----6-5-|-3-0-2-0-2-3-2-0-

Stave 5:

E|--------------|--------------|--------------|-----------------
B|--------------|--------------|--------------|-----------------
G|--------------|--------------|--------------|-----------------
D|--------------|--------------|--------------|-5---4---4-5-4---
A|-2-2-4/7------|-2-2-4/7------|-2-2-4/7------|-5---4---4-5-4-2-
E|-0-0-----6-5v-|-0-0-----6-5v-|-0-0-----6-5v-|-3-0-2-0-2-3-2-0-

Stave 6:

E|-----------------|-----------------|-------------------------------
B|-----------------|-----------------|-------------------------------
G|-----------------|-----------------|-------------------------------
D|-----------------|-----------------|---------------5---4---4-5-4---
A|-2-2-2-2-2-2-2-2-|-2-2-2-2-2-2-2-2-|-2-2-2-2-2-2-2-5---4---4-5-4-2-
E|-0-0-0-0-0-0-0-1-|-0-0-0-0-0-0-0-1-|-0-0-0-0-0-0-0-3-0-2-0-2-3-2-0-

Stave 7:

E|-------------|-------------|-------------|-------------
B|-------------|-------------|-------------|-------------
G|-----2-------|-----2-------|-----2-------|-----2-------
D|---4-------4-|---4-------4-|---4-------4-|---4-------4-
A|-------3-2---|-------3-2---|-------3-2---|-------3-2---
E|-2-----------|-2-----------|-2-----------|-2-----------

Stave 8:

E|--------------------------------------|------------------------|-------------|-------------
B|--------------------------------------|------------------------|-------------|-------------
G|---5-4----5-4----5-4------------------|---5-4------------------|-----2---4-0-|---------2---
D|-4-5-4--4-5-4--4-5-4------------------|-4-5-4------------------|-5-2---2-----|-4-2-5-2---2-
A|-4-3-2--4-3-2--4-3-2--2-2-2-2-2-2-2-2-|-4-3-2--2-2-2-2-2-2-2-2-|-------------|-------------
E|-2------2------2------0-0-0-0-0-0-0-0-|-2------0-0-0-0-0-0-0-0-|-------------|-------------

http://www.guitartabcreator.com
Guitar Tab Creator is intended to store guitar tab created through the tool. It currently does not support in-line text editing. Any text you place in here will be lost. If you need to comment on your tab, please use the "Tab Notes" section located below.