Sound will begin in 5 seconds

Megadeth-Peace Sells... But Who's Buying

01234567891011121314151617181920212223
E
B
G
D
A
E
B
0 1 2 3 4 5 6 7 8 9 10 11 12 13 14 15 16 17 18 19 20 21 22 23
Song Science #1: How Pros Use 6 Chords to Write Hit Songs
(/) Slide Up  (\) Slide Down  (h) Hammer On  (p) Pull Off  (b) Bend (r) Release (v) Vibrato

Stave 1:

E|-----------17b17b-17b17b-17b17b-12h16p12----12-11h15p11----11-10h14p10----10-9h13p9----9-
B|-----------------------------------------16-------------15-------------14-----------13---
G|-----9\----------------------------------------------------------------------------------
D|-----9-----------------------------------------------------------------------------------
A|-----7--2--------------------------------------------------------------------------------
E|-0-0----0--------------------------------------------------------------------------------

Stave 2:

E|--8h12p8----8-7h11p7----7-6h10p6----5h9p5---5------
B|---------12----------11----------10-------9---2/5v-
G|---------------------------------------------------
D|---------------------------------------------------
A|---------------------------------------------------
E|---------------------------------------------------

Stave 3:

E|-----------------|-----------------|-----------------|-----------------
B|-----------------|-----------------|-----------------|-----------------
G|-----------------|-----------------|-----------------|-----------------
D|---------------6-|---------------5-|---------------6-|-------------8-7-
A|---------------6-|---------------5-|---------------6-|-------------8-7-
E|-0-0-0-0-0-0-0-4-|-0-0-0-0-0-0-0-3-|-0-0-0-0-0-0-0-4-|-0-0-0-0-0-0-6-5-

Stave 4:

E|-----------------|----------------|---------------|---------
B|-----------------|----------------|---------------|---------
G|-----------------|----------------|---------------|---------
D|--9-9-7-9-12-7/9-|-9-9-7-9-12-----|---------7-----|-------5-
A|--7-7-5-7-10-5-7-|-7-7-5-7-10-4-5-|-5-5-4-5-5-4-5-|-5-4-3-3-
E|-----------------|------------2-3-|-3-3-2-3---2-3-|-3-2-1---

Stave 5:

E|---------------------------------------------------------------------------------
B|---------------------------------------------------------------------------------
G|---------------------------------------------------------------------------------
D|-----5p4-5-----4p2-4-----2p0-2---------------------------------------------------
A|-----------------------------------5p4-5-----4p2-4-----2p0-2---------------------
E|-0-0-------0-0-------0-0-------0-0-------0-0-------0-0-------0-0-5p3-5-0-0-3p2-3-

Stave 6:

E|-------------------|-------------------|-------------------|-------------------
B|-------------------|-------------------|-------------------|-------------------
G|-------------------|-------------------|-------------------|-------------------
D|-------5-----------|-------5-----------|-------5-----------|-------5-----------
A|-7-5-7-----7-5-0-0-|-7-5-7-----7-5-0-0-|-7-5-7-----7-5-0-0-|-7-5-7-----7-5-0-0-
E|---------0---------|---------0---------|---------0---------|---------0---------

Stave 7:

E|------------------------------
B|------------------------------
G|------------------------------
D|-9--x-x-12--x-x-11--x-x----x-x-
A|-7--x-x-10--x-x-9---x-x-9--x-x-
E|---x-x-----x-x-----x-x-7--x-x-

http://www.guitartabcreator.com
Guitar Tab Creator is intended to store guitar tab created through the tool. It currently does not support in-line text editing. Any text you place in here will be lost. If you need to comment on your tab, please use the "Tab Notes" section located below.