Sound will begin in 5 seconds

James Bond 007 Theme Song

01234567891011121314151617181920212223
E
B
G
D
A
E
B
0 1 2 3 4 5 6 7 8 9 10 11 12 13 14 15 16 17 18 19 20 21 22 23
Song Science #1: How Pros Use 6 Chords to Write Hit Songs
(/) Slide Up  (\) Slide Down  (h) Hammer On  (p) Pull Off  (b) Bend (r) Release (v) Vibrato

Stave 1:

E|----------------------------------
B|----------------------------------
G|----------------------------------
D|----------------------------------
A|-2---3---4---3---2---3---4---3----
E|---0---0---0---0---0---0---0---0--

Stave 2:

E|-------------------------------------------------------------------------------------
B|-------------------------------------------------------------------------------------
G|-------------------------------------------------------------------------------------
D|--------------------------------------------------------------------------1-0--------
A|------------------------------------------------------------------------------2-0-2v-
E|-2--2-2-2--2-0-0-0-3--3-3-3--3-0-0-0-2--2-2-2--2-0-0-0--3--3-3-3--3-2-1-0------------

Stave 3:

E|-----11-10---7-8------------------|-----11-10---7-8-----------------
B|---8-------8-----8-8p10-7---------|---8-------8-----8-8p10-7--------
G|-9--------------------------8-----|-9--------------------------8-9v-
D|--------------------------8---10v-|--------------------------9------
A|----------------------------------|---------------------------------
E|----------------------------------|---------------------------------

Stave 4:

E|---------------------------------|---------------------------------
B|---------------------------------|---------------------------------
G|-9-9--9-11-9-11--12-12--12-11-12-|-9-9--9-11-9-11--12-12--12-11-12-
D|---------------------------------|---------------------------------
A|-7-7--7-9--7-9---10-10--10-9--10-|-7-7--7-9--7-9---10-10--10-9--10-
E|---------------------------------|---------------------------------

Stave 5:

E|----------------------------------------------------------------
B|----------------------------------------------------------------
G|-16-16---16-16---16-16-16-16-16---------------------------------
D|----------------------------------------------------------------
A|-14-14---14-14---14-14-14-14-14-2---3---4---3---2---3---4---3---
E|-------7-------7------------------0---0---0---0---0---0---0---0-

Stave 6:

E|------------------------------3-11-10--2-
B|----------------------------5----------2-
G|-----------------------4-3-------------2-
D|-----1-0------4-3----------------------1-
A|------------2------2-5-----------------2-
E|-0-3------3------------------------------

http://www.guitartabcreator.com
Guitar Tab Creator is intended to store guitar tab created through the tool. It currently does not support in-line text editing. Any text you place in here will be lost. If you need to comment on your tab, please use the "Tab Notes" section located below.