Sound will begin in 5 seconds

Green Day-Holiday

01234567891011121314151617181920212223
E
B
G
D
A
E
B
0 1 2 3 4 5 6 7 8 9 10 11 12 13 14 15 16 17 18 19 20 21 22 23
Song Science #1: How Pros Use 6 Chords to Write Hit Songs
(/) Slide Up  (\) Slide Down  (h) Hammer On  (p) Pull Off  (b) Bend (r) Release (v) Vibrato

Stave 1:

E|-------------------------|-------------------------|-------------------------
B|-------------------------|-------------------------|-------------------------
G|-10-10-------13-13-------|-10-10-------13-13-------|-10-10-------13-13-------
D|-10-10-11-11-13-13-13-13-|-10-10-11-11-13-13-13-13-|-10-10-11-11-13-13-13-13-
A|-8--8--11-11-11-11-13-13-|-8--8--11-11-11-11-13-13-|-8--8--11-11-11-11-13-13-
E|-------9--9--------11-11-|-------9--9--------11-11-|-------9--9--------11-11-

Stave 2:

E|--------------------------
B|--------------------------
G|--------------------------
D|--10-10-10-10-10-10-10-10-
A|--10-10-10-10-10-10-10-10-
E|--8--8--8--8--8--8--8--8--

Stave 3:

E|-------------------------------------
B|-------------------------------------
G|-10-10-10-10-------------13-13-13-13-
D|-10-10-10-10-11-11-11-11-13-13-13-13-
A|-8--8--8--8--11-11-11-11-11-11-11-11-
E|-------------9--9--9--9--------------

Stave 4:

E|-----------------
B|-----------------
G|-----------------
D|--10-10-10-10-10-
A|--10-10-10-10-10-
E|--8--8--8--8--8--

Stave 5:

E|------------------------------------------------
B|------------------------------------------------
G|-10-10-10-10------------------------------------
D|-10-10-10-10-11-11-11-11-4-4-4-4-10-10-10-10-10-
A|-8--8--8--8--11-11-11-11-4-4-4-4-10-10-10-10-10-
E|-------------9--9--9--9--2-2-2-2-8--8--8--8--8--

http://www.guitartabcreator.com
Guitar Tab Creator is intended to store guitar tab created through the tool. It currently does not support in-line text editing. Any text you place in here will be lost. If you need to comment on your tab, please use the "Tab Notes" section located below.