Sound will begin in 5 seconds

Green Day-American Idiot

01234567891011121314151617181920212223
E
B
G
D
A
E
B
0 1 2 3 4 5 6 7 8 9 10 11 12 13 14 15 16 17 18 19 20 21 22 23
Song Science #1: How Pros Use 6 Chords to Write Hit Songs
(/) Slide Up  (\) Slide Down  (h) Hammer On  (p) Pull Off  (b) Bend (r) Release (v) Vibrato

Stave 1:

E|----------------------------------------------
B|----------------------------------------------
G|-------6--6-6-----6------------6--6-6-----6---
D|-6-6-6-6--6-6-4-4-6-6-4--6-6-6-6--6-6-4-4-6-6-
A|-6-6-6-4--4-4-4-4-4-6-4--6-6-6-4--4-4-4-4-4-6-
E|-4-4-4--------2-2---4-2--4-4-4--------2-2---4-

Stave 2:

E|-----------------------------------------------------------------------------
B|-----------------------------------------------------------------------------
G|--6--6--6-6-6-6--6-6--6-6---------------------------8--8--8-8-8-8--8-8---8-8-
D|--6--6--6-6-6-6--6-6--6-6--6--6--6-6-6-6--6-6--6-6--8--8--8-8-8-8--8-8---8-8-
A|--4--4--4-4-4-4--4-4--4-4--6--6--6-6-6-6--6-6--6-6--6--6--6-6-6-6--6-6---6-6-
E|---------------------------4--4--4-4-4-4--4-4--4-4---------------------------

Stave 3:

E|---------------------------------------------------------------------------
B|---------------------------------------------------------------------------
G|--------------------------6--6--6-6-6-6--6-6--6-6--------------------------
D|-6--6--6-6-6-6--6-6--6-6--6--6--6-6-6-6--6-6--6-6--6--6--6-6-6-6--6-6--6-6-
A|-6--6--6-6-6-6--6-6--6-6--4--4--4-4-4-4--4-4--4-4--6--6--6-6-6-6--6-6--6-6-
E|-4--4--4-4-4-4--4-4--4-4---------------------------4--4--4-4-4-4--4-4--4-4-

Stave 4:

E|--------------------------
B|--------------------------
G|--8--8--8-8-8-8--8-8--8-8-
D|--8--8--8-8-8-8--8-8--8-8-
A|--6--6--6-6-6-6--6-6--6-6-
E|--------------------------

Stave 5:

E|---------------------------------------------------------------------------------
B|---------------------------------------------------------------------------------
G|--10--10--10-10-10-10--10-10-8-6--8--8--8-8-8--10--8--6-5--3--3--3-3-5-6-5-3-3-3-
D|---------------------------------------------------------------------------------
A|--8---8---8--8--8--8---8--8--6-4--6--6--6-6-6--8---6--4-3------------------------
E|---------------------------------------------------------------------------------

Stave 6:

E|------------------8------------
B|-----9-----11-----------11---9-
G|-8-8---8-8----8-8---8-8----8---
D|-------------------------------
A|-------------------------------
E|-------------------------------

Stave 7:

E|---------------------------------|-----------------------------------------------
B|---------------------------------|-----------------------------------------------
G|--10--10--10-10-10-10--10-10-8-6-|-8--8--8-8-8-10-8-6-5-3--3--3-3-5-6-5-3-3-3/13-
D|---------------------------------|-----------------------------------------------
A|--8---8---8--8--8--8---8--8--6-4-|-6--6--6-6-6-8--6-4-3--------------------------
E|---------------------------------|-----------------------------------------------

Stave 8:

E|-----------------------
B|-----------------------
G|------6--6-6-----6-6---
D|-6-6-6-6--6-6-4-4-6-6-6-
A|-6-6-6-4--4-4-4-4-4-4-6-
E|-4-4-4--------2-2-----4-

http://www.guitartabcreator.com
Guitar Tab Creator is intended to store guitar tab created through the tool. It currently does not support in-line text editing. Any text you place in here will be lost. If you need to comment on your tab, please use the "Tab Notes" section located below.