Sound will begin in 5 seconds

Blink-182-What's My Age Again?

01234567891011121314151617181920212223
E
B
G
D
A
E
B
0 1 2 3 4 5 6 7 8 9 10 11 12 13 14 15 16 17 18 19 20 21 22 23
Song Science #1: How Pros Use 6 Chords to Write Hit Songs
(/) Slide Up  (\) Slide Down  (h) Hammer On  (p) Pull Off  (b) Bend (r) Release (v) Vibrato

Stave 1:

E|----------------------------------------------
B|------11---------11---------11----------11----
G|---11----11---11----11---11----11----11----11-
D|-9--------------------------------------------
A|------------9---------------------------------
E|-----------------------9----------11----------

Stave 2:

E|---------------------|--------------------|--------------------
B|---------------------|--------------------|--------------------
G|-----6-6--8-8--4-4-4-|----6-6--8-8--4-4-4-|----6-6--8-8--4-4-4-
D|--4--6-6--8-8--4-4-4-|-4--6-6--8-8--4-4-4-|-4--6-6--8-8--4-4-4-
A|--4--4-4--6-6--2-2-2-|-4--4-4--6-6--2-2-2-|-4--4-4--6-6--2-2-2-
E|--2------------------|-2------------------|-2------------------

Stave 3:

E|----------------------------------
B|----------------------------------
G|----6-6--8--8-8--8-8--6--6-6--6-6-
D|--4-6-6--8--8-8--8-8--6--6-6--6-6-
A|--4-4-4--6--6-6--6-6--4--4-4--4-4-
E|--2-------------------------------

Stave 4:

E|----------------------------------|---------------------------------
B|----------------------------------|---------------------------------
G|----------------------------------|---------------------------------
D|--4-4-4-4---------6-6-6-6-8-8-8-8-|-4-4-4-4---------6-6-6-6-8-8-8-8-
A|--2-2-2-2-4-4-4-4-4-4-4-4-6-6-6-6-|-2-2-2-2-4-4-4-4-4-4-4-4-6-6-6-6-
E|----------2-2-2-2-----------------|---------2-2-2-2-----------------

Stave 5:

E|----------------------------------|-------------------------------------------------
B|----------------------------------|-------------------------------------------------
G|----------------------------------|-------------------------------------------------
D|--4-4-4-4---------6-6-6-6-8-8-8-8-|-4-4-4-4---------6-6-6-6-6-6-6-6-8-8-8-8-8-8-8-8-
A|--2-2-2-2-4-4-4-4-4-4-4-4-6-6-6-6-|-2-2-2-2-4-4-4-4-4-4-4-4-4-4-4-4-6-6-6-6-6-6-6-6-
E|----------2-2-2-2-----------------|---------2-2-2-2---------------------------------

Stave 6:

E|---------------------------|--------------------------------------------
B|-11----11------11----11----|--------------------------------------------
G|----11----11------11----11-|--------------------------------------------
D|-------------9-------------|--------------------------------------------
A|---------------------------|-9-9-9-8h9--9-9-9-8h9--9-9-9-8h9--9-9-9-8h9-
E|---------------------------|--------------------------------------------

Stave 7:

E|--------------|--------------|--------------|--------------
B|--------------|--------------|--------------|--------------
G|-------11-----|-------11-----|-------11-----|-------11-----
D|---8--------8-|---8--------8-|---8--------8-|---8--------8-
A|-9---9----9---|-9---9----9---|-9---9----9---|-9---9----9---
E|--------------|--------------|--------------|--------------

Stave 8:

E|--------------|--------------|--------------|--------------
B|--------------|--------------|--------------|--------------
G|-------11-----|-------11-----|-------11-----|-------11-----
D|---8--------8-|---8--------8-|---8--------8-|---8--------8-
A|-9---9----9---|-9---9----9---|-9---9----9---|-9---9----9---
E|--------------|--------------|--------------|--------------

Stave 9:

E|--
B|--
G|--
D|--
A|--
E|--

http://www.guitartabcreator.com
Guitar Tab Creator is intended to store guitar tab created through the tool. It currently does not support in-line text editing. Any text you place in here will be lost. If you need to comment on your tab, please use the "Tab Notes" section located below.