Sound will begin in 5 seconds

Blink-182-All the Small Things

01234567891011121314151617181920212223
E
B
G
D
A
E
B
0 1 2 3 4 5 6 7 8 9 10 11 12 13 14 15 16 17 18 19 20 21 22 23
Song Science #1: How Pros Use 6 Chords to Write Hit Songs
(/) Slide Up  (\) Slide Down  (h) Hammer On  (p) Pull Off  (b) Bend (r) Release (v) Vibrato

Stave 1:

E|----------------------|-----------------|-----------------|-----------------
B|----------------------|-6-6-6-6-6-6-6-6-|-----------------|-----------------
G|------5-5-5-5-5-5-5-5-|-5-5-5-5-5-5-5-5-|-----------------|-----------------
D|-5-3--5-5-5-5-5-5-5-5-|-3-3-3-3-3-3-3-3-|-5-5-5-5-5-5-5-5-|-5---------3-3-3-
A|-5-3--3-3-3-3-3-3-3-3-|-----------------|-5-5-5-5-5-5-5-5-|-5-0-0-0-0-3-3-3-
E|-3-1------------------|-----------------|-3-3-3-3-3-3-3-3-|-3---------1-1-1-

Stave 2:

E|------------------|-----------------|-----------------|-----------------|-------
B|------------------|-----------------|-----------------|-----------------|-------
G|------------------|-----------------|-----------------|-----------------|-------
D|--5-5-5-5-5-5-5-5-|-----------------|-----------------|-----------------|-------
A|--3-3-3-3-3-3-3-3-|-5-5-5-5-5-5-5-5-|-3-3-3-3-3-3-3-3-|-5-5-5-5-5-5-5-5-|-5-5-5-
E|------------------|-3-3-3-3-3-3-3-3-|-1-1-1-1-1-1-1-1-|-3-3-3-3-3-3-3-3-|-3-3-3-

Stave 3:

E|------------------|-----------------|-----------------|-----------------
B|------------------|-----------------|-----------------|-----------------
G|--5-5-5-5-5-5-5-5-|-5-5-5-5-5-5-5-5-|-----------------|-----------------
D|--5-5-5-5-5-5-5-5-|-5-5-5-5-5-5-5-5-|-5-5-5-5-5-5-5-5-|-3-3-3-3-3-3-3-3-
A|--3-3-3-3-3-3-3-3-|-3-3-3-3-3-3-3-3-|-5-5-5-5-5-5-5-5-|-3-3-3-3-3-3-3-3-
E|------------------|-----------------|-3-3-3-3-3-3-3-3-|-1-1-1-1-1-1-1-1-

Stave 4:

E|-----------------|---------------------|-----------------|-----------------
B|-----------------|---------------------|-----------------|-----------------
G|-5-5-5-5-5-5-5-5-|-10-10-10-10-9-9-9-9-|-7-7-7-7-7-7-7-7-|-7---------5-5-5-
D|-x-x-x-x-x-x-x-x-|-x--x--x--x--x-x-x-x-|-x-x-x-x-x-x-x-x-|-x---------x-x-x-
A|-3-3-3-3-3-3-3-3-|-8--8--8--8--7-7-7-7-|-5-5-5-5-5-5-5-5-|-5-0-0-0-0-3-3-3-
E|-----------------|---------------------|-----------------|-----------------

Stave 5:

E|--|------|-----------------|-----------------|-----------------|-----------------
B|-5-|------|-----------------|-----------------|-----------------|-----------------
G|-5-|-5--7-|-5---5---5---5---|-5---5---5---5---|-5---5---5---5---|-4---4---4---4---
D|-5-|-5--7-|---5---5---5---5-|---5---5---5---5-|---5---5---5---5-|---5---5---5---5-
A|-3-|-3--5-|-----------------|-----------------|-----------------|-----------------
E|--|------|-----------------|-----------------|-----------------|-----------------

Stave 6:

E|-----------------|-----------------|-----------------|-----------------
B|-----------------|-----------------|-----------------|-----------------
G|-5---5---5---5---|-5---5---5---5---|-5---5---5---5---|-4-4-4-4-4-4-4h5-
D|---5---5---5---5-|---5---5---5---5-|---5---5---5---5-|-----------------
A|-----------------|-----------------|-----------------|-----------------
E|-----------------|-----------------|-----------------|-----------------

Stave 7:

E|----------------|-----------------|-----------------|--------------
B|----------------|-----------------|-----------------|--------------
G|-5-5-5-5-5-5-5-5-|-5-5-5-5-5-5-5-5-|-----------------|--------------
D|-5-5-5-5-5-5-5-5-|-5-5-5-5-5-5-5-5-|-5-5-5-5-5-5-5-5-|-----3------3-
A|-3-3-3-3-3-3-3-3-|-3-3-3-3-3-3-3-3-|-5-5-5-5-5-5-5-5-|-----3------3-
E|----------------|-----------------|-3-3-3-3-3-3-3-3-|-1-1-1--1-1-1-

Stave 8:

E|----------------|-----------------|---------------|-------------|----------------
B|----------------|-----------------|---------------|-------------|----------------
G|-5-5-5-5-5-5-5-5-|-5-5-5-5-5-5-5-5-|---------------|-------------|--------------5-
D|-5-5-5-5-5-5-5-5-|-5-5-5-5-5-5-5-5-|-5-5-5-5-5-5-5-|-----3-----3-|-----3-----3--5-
A|-3-3-3-3-3-3-3-3-|-3-3-3-3-3-3-3-3-|-5-5-5-5-5-5-5-|-----3-----3-|-----3-----3--3-
E|----------------|-----------------|-3-3-3-3-3-3-3-|-1-1-1-1-1-1-|-1-1-1-1-1-1----

http://www.guitartabcreator.com
Guitar Tab Creator is intended to store guitar tab created through the tool. It currently does not support in-line text editing. Any text you place in here will be lost. If you need to comment on your tab, please use the "Tab Notes" section located below.