Sound will begin in 5 seconds

Black Sabbath-Iron Man

01234567891011121314151617181920212223
E
B
G
D
A
E
B
0 1 2 3 4 5 6 7 8 9 10 11 12 13 14 15 16 17 18 19 20 21 22 23
Song Science #1: How Pros Use 6 Chords to Write Hit Songs
(/) Slide Up  (\) Slide Down  (h) Hammer On  (p) Pull Off  (b) Bend (r) Release (v) Vibrato

Stave 1:

E|--------------------------------------------------------------|------------------------------------------------
B|--------------------------------------------------------------|------------------------------------------------
G|--------------------------------------------------------------|------------------------------------------------
D|----------------4--7--7-9--9--12\11--12\11--12\11--7--7/9--9--|--4--7--7/9--9--12\11--12\11--12\11--7--7/9--9--
A|----------------4--7--7/9--9--12-11--12-11--12-11--7--7-9--9--|--4--7--7-9--9--12-11--12-11--12-11--7--7-9--9--
E|--1b--1b--1b----2--5--5-7--7--10-9---10-9---10-9---5--5-7--7--|--2--5--5-7--7--10-9---10-9---10-9---5--5-7--7--

Stave 2:

E|-------------------------------------------|-------------------------------------------
B|-------------------------------------------|-------------------------------------------
G|-------------------------------------------|-------------------------------------------
D|----------------4p5--4p5--4p5--------------|----------------4p5--4p5--4p5--------------
A|-----5--5h7--7-----------------5--5--7--7--|-----5--5h7--7-----------------5--5--7--7--
E|--7----------------------------------------|--7----------------------------------------

Stave 3:

E|----------------------------------------------|----------------------------------------------
B|----------------------------------------------|----------------------------------------------
G|----------------------------------------------|----------------------------------------------
D|----------------------------------------------|----------------------------------------------
A|----------5v----------------------------------|----------5v----------------------------------
E|--7--7--------7----6--5--5--5--0--4--5--5--6--|--7--7--------7----6--5--5--5--0--4--5--5--6--

Stave 4:

E|-----------------------------
B|-----------------------------
G|-----------------------------
D|-----------------------------
A|--------5v-------------------
E|--7--7------7----6--5--5--5--

Stave 5:

E|----------
B|----------
G|----------
D|--9----7--
A|--7----5--
E|----------

Stave 6:

E|----------------------------------------|--------------------------------------
B|----------------------------------------|--------------------------------------
G|----------------------------------------|--------------------------------------
D|----9--9-----------------------7--8--9--|--9--9-----------------------7--8--9--
A|----9--9---------7----7--8--9-----------|--9--9---------7----7--8--9-----------
E|----7--7--7--10-------------------------|--7--7--7--10-------------------------

Stave 7:

E|----------------------------------|----------------------------------
B|----------------------------------|----------------------------------
G|----------------------------------|----------------------------------
D|--11--9---------------------------|--11--9---------------------------
A|---------11--10--7----------------|---------11--10--7----------------
E|--------------------7--7--7h9--9--|--------------------7--7--7h9--9--

Stave 8:

E|--------------------------------------------------|--------------------------------------------------
B|--------------------------------------------------|--------------------------------------------------
G|--------------------------------------------------|--------------------------------------------------
D|-----------------------------4--5--4--5--4p5------|-----------------------------4--5--4--5--4p5------
A|--5p7--7v--5h7--5v--5p7--7v-------------------5v--|--5p7--7v--5h7--5v--5p7--7v-------------------5v--
E|--------------------------------------------------|--------------------------------------------------

http://www.guitartabcreator.com
Guitar Tab Creator is intended to store guitar tab created through the tool. It currently does not support in-line text editing. Any text you place in here will be lost. If you need to comment on your tab, please use the "Tab Notes" section located below.