Sound will begin in 5 seconds

Black Sabbath-Electric Funeral

01234567891011121314151617181920212223
E
B
G
D
A
E
B
0 1 2 3 4 5 6 7 8 9 10 11 12 13 14 15 16 17 18 19 20 21 22 23
Song Science #1: How Pros Use 6 Chords to Write Hit Songs
(/) Slide Up  (\) Slide Down  (h) Hammer On  (p) Pull Off  (b) Bend (r) Release (v) Vibrato

Stave 1:

E|----------------------|---------------------
B|----------------------|---------------------
G|----------------------|---------------------
D|----------------------|---------------------
A|-----2h3p2v-----------|-----2h3p2v----------
E|-0-0--------0-2h3p2v--|-0-0--------0-2h3p2v-

Stave 2:

E|-----------------------------------|-----------------------------------
B|-----------------------------------|-----------------------------------
G|-----------------------------------|-----------------------------------
D|-----------------------------------|-----------------------------------
A|----2--1-1-0------------2--1-1-0---|----2--1-1-0------------2--1-1-0---
E|-0-----------3--0-0-0-0----------3-|-0-----------3--0-0-0-0----------3-

Stave 3:

E|--------------------------------------------------
B|--------------------------------------------------
G|--------------------------------------------------
D|--------------------------------------------------
A|-14-13-12--14-13-12--14-13-12--14-13-12--14-13-12-
E|-12-11-10--12-11-10--12-11-10--12-11-10--12-11-10-

Stave 4:

E|-----------12-12-12-12-12-|----------12-12-12-12-12-
B|-----------12-12-12-12-12-|----------12-12-12-12-12-
G|-----------12-12-12-12-12-|----------12-12-12-12-12-
D|--------------------------|-------------------------
A|--14-12-14----------------|-14-12-14----------------
E|--12-10-12----------------|-12-10-12----------------

Stave 5:

E|-------------------------------------|-------------------------------------
B|-------------------------------------|-------------------------------------
G|-------12-14-12-16-------12-14-16-12-|-------12-14-12-16-------12-14-16-12-
D|-10/14-------------10/14-------------|-10/14-------------10/14-------------
A|-------------------------------------|-------------------------------------
E|-------------------------------------|-------------------------------------

Stave 6:

E|-12b12-12b12-|-12b12-12b12-|-12b12-12b12-|-12b12-12b12-
B|-15-15b15-15b|-15-15b15-15b|-15-15b15-15b|-15-15b15-15b
G|-------------|-------------|-------------|-------------
D|-------------|-------------|-------------|-------------
A|-------------|-------------|-------------|-------------
E|-------------|-------------|-------------|-------------

Stave 7:

E|---------------|---------------|---------------
B|-3-3b3-3b5-----|-3b3-3b3-5b/---|-3b3-3b3-5b/---
G|-5b5-5b5-7b/12\|-5-5b5-5b7--12\|-5-5b5-5b7--12\
D|---------------|---------------|---------------
A|---------------|---------------|---------------
E|---------------|---------------|---------------

http://www.guitartabcreator.com
Guitar Tab Creator is intended to store guitar tab created through the tool. It currently does not support in-line text editing. Any text you place in here will be lost. If you need to comment on your tab, please use the "Tab Notes" section located below.