Sound will begin in 5 seconds

Beethoven's Symphony #5

01234567891011121314151617181920212223
E
B
G
D
A
E
B
0 1 2 3 4 5 6 7 8 9 10 11 12 13 14 15 16 17 18 19 20 21 22 23
Song Science #1: How Pros Use 6 Chords to Write Hit Songs
(/) Slide Up  (\) Slide Down  (h) Hammer On  (p) Pull Off  (b) Bend (r) Release (v) Vibrato

Stave 1:

E|----------|----------|--------------------------|-----------------------------
B|----------|----------|--------------------------|-----------------------------
G|----------|----------|-----------------8-8-8-5v-|-5-5-5-----------10-10-10-7v-
D|-5-5-5----|----------|-5-5-5---6-6-6-5----------|-------5-6-6-6-5-------------
A|-------6v-|-8-8-8-5v-|-------6------------------|-----------------------------
E|----------|----------|--------------------------|-----------------------------

Stave 2:

E|------------|----------|------------|----------|----------------|--------------
B|-8-8-8-6----|----------|-8-8-8-6----|----------|-8-8-6----------|--------------
G|---------8v-|----------|---------8v-|----------|-------8--5--12-|-13-13-13--10-
D|------------|-------5v-|------------|-------5v-|-------x--x--x--|-x--x--x---x--
A|------------|-6-6-8----|------------|-6-6-8----|-------6--3--10-|-11-11-11--8--
E|------------|----------|------------|----------|----------------|--------------

Stave 3:

E|--------------------------|--------------------------
B|--------------------------|--------------------------
G|--------------------------|--------------------------
D|-6-6-6--------------------|-6-6-6--------------------
A|-------8-5-5-5------------|-------8-5-5-5------------
E|---------------7-4-4-4-3v-|---------------7-4-4-4-3v-

http://www.guitartabcreator.com
Guitar Tab Creator is intended to store guitar tab created through the tool. It currently does not support in-line text editing. Any text you place in here will be lost. If you need to comment on your tab, please use the "Tab Notes" section located below.