Sound will begin in 5 seconds

AC/DC-Back In Black

01234567891011121314151617181920212223
E
B
G
D
A
E
B
0 1 2 3 4 5 6 7 8 9 10 11 12 13 14 15 16 17 18 19 20 21 22 23
Song Science #1: How Pros Use 6 Chords to Write Hit Songs
(/) Slide Up  (\) Slide Down  (h) Hammer On  (p) Pull Off  (b) Bend (r) Release (v) Vibrato

Stave 1:

E|------------------------3--0------------|-------------------------------------------------
B|------------------------------3--0------|-------------------------------------------------
G|----7--7--7-------------------------2b2p|-----7--7--7-------------------------------------
D|--2--7--7--7--7--7--7--------------------|--2--7--7--7--7--7--7----------------------------
A|--2--5--5--5--7--7--7--------------------|--2--5--5--5--7--7--7--2-----2-----2-----2-------
E|--0-----------5--5--5--------------------|--0-----------5--5--5-----4-----5-----6-----7\2--

Stave 2:

E|----------------|-----------------
B|----------------|-----------------
G|----------------|-----------------
D|--7-----9--7--9--|--7-----9--7--9--
A|--7-----9--7--9--|--7-----9--7--9--
E|--5--0--7--5--7--|--5--0--7--5--7--

Stave 3:

E|--3-------------|--3-------------
B|--3--3----------|--3--3----------
G|--0--2--2-------|--0--2--2-------
D|-----0--2-------|-----0--2-------
A|--------0----0--|--------0----0--
E|-----------3b---|-----------3b---

Stave 4:

E|--3--3--3--3--3-------------
B|--3--3--3--3--3----3--3--3--
G|--0--0--0--0--0----2--2--2--
D|--0--0--0--0--0----0--0--0--
A|--2--2--2--2--2-------------
E|--3--3--3--3--3-------------

Stave 5:

E|-------------------------
B|-------------------------
G|-------------------------
D|-------------------------
A|-------7v-----5v-----4v--
E|----0------0------0------

Stave 6:

E|--------------------------------------|--------------------------------------
B|--------------------------------------|--------------------------------------
G|--------------------------------------|--------------------------------------
D|--------------------------------------|--------------------------------------
A|-----5--4--2--4--2--2-----2-----2-----|-----5--4--2--4--2--2-----2-----2-----
E|--0--------------------4-----5-----6--|--0--------------------4-----5-----6--

Stave 7:

E|--------------------------------------
B|--------------------------------------
G|--------------------------------------
D|-----5--4--2--4--2--2-----2-----2-----
A|--0--------------------4-----5-----6--
E|--------------------------------------

Stave 8:

E|------------------------------------------
B|--12b10----------------------------12b----
G|---------9p7--9--7p6--7--6p4--6----12-----
D|--------------------------------------14--
A|------------------------------------------
E|------------------------------------------

http://www.guitartabcreator.com
Guitar Tab Creator is intended to store guitar tab created through the tool. It currently does not support in-line text editing. Any text you place in here will be lost. If you need to comment on your tab, please use the "Tab Notes" section located below.