It Might Be You

01234567891011121314151617181920212223
E
B
G
D
A
E
B
0 1 2 3 4 5 6 7 8 9 10 11 12 13 14 15 16 17 18 19 20 21 22 23
(/) Slide Up  (\) Slide Down  (h) Hammer On  (p) Pull Off  (b) Bend (r) Release (v) Vibrato

Stave 1:

E|----------------------------------------------------------------------------------------------------------------
B|----------------------------------------------------------------------------------------------------------------
G|---------------------0--0--2--2h4--0-----0--0--2--2h4--0-----0--0--2--2h4--0-----0--0--4/5--4--2/4--2--------0--
D|-------------------------------------------------------------------------------------------------------0--2-----
A|--------------------------------------2-------------------3-------------------5---------------------------------
E|--3--7--8--10-----3---------------------------------------------------------------------------------------------

Stave 2:

E|-------------10--10-----------10--10-----------10--10--12--8-----7------------
B|--8-----7/8-------------7--8-------------7--8-----------------------10--8--8--
G|------------------------------------------------------------------------------
D|------------------------------------------------------------------------------
A|------------------------------------------------------------------------------
E|------------------------------------------------------------------------------

Stave 3:

E|--------------------------10-----------------------------------------------
B|--10/12-----8h10--12--13------11p10--8--10--10/12--8-----7/8--------10/12--
G|--------------------------------------------------------------9--7---------
D|---------------------------------------------------------------------------
A|---------------------------------------------------------------------------
E|---------------------------------------------------------------------------

Stave 4:

E|-----------------10------------12/14--15--12-----12--14--14--15---------------------------------
B|--8--10--12--13------11p10--8------------------------------------15-----13--12------------------
G|--------------------------------------------------------------------------------14--12--14--12--
D|------------------------------------------------------------------------------------------------
A|------------------------------------------------------------------------------------------------
E|------------------------------------------------------------------------------------------------

Stave 5:

E|--------7h8--7--8--7--10--7------------7h8--7--8--7--10--7----------------------------
B|-----8-----------------------10-----8-----------------------10-----7--8--------10/12--
G|--9----------------------------------------------------------------------9--7---------
D|--------------------------------------------------------------------------------------
A|--------------------------------------------------------------------------------------
E|--------------------------------------------------------------------------------------

Stave 6:

E|--------------14--15--14-------------12/13--13--13--13-------------------------------------------
B|--12--12--15--------------15--15----------------------------13-----13--15--15b16--15-------------
G|--------------------------------------------------------14----------------------------12--14/16--
D|-------------------------------------------------------------------------------------------------
A|-------------------------------------------------------------------------------------------------
E|-------------------------------------------------------------------------------------------------

Stave 7:

E|--------------15--15--15b17--15--14---------12--12h13--13--15----------
B|--12--12--15----------------------------15---------------------15--17--
G|-----------------------------------------------------------------------
D|-----------------------------------------------------------------------
A|-----------------------------------------------------------------------
E|-----------------------------------------------------------------------

Stave 8:

E|----------8--7--8--7--10--7------------7--8--7--8--7--10--7-----------------8--7--8--10--7------
B|--10--12---------------------10-----8------------------------10-----10--12------------------10--
G|------------------------------------------------------------------------------------------------
D|------------------------------------------------------------------------------------------------
A|------------------------------------------------------------------------------------------------
E|------------------------------------------------------------------------------------------------

Stave 9:

E|-------------------------
B|--8--------10/12--11/12--
G|-----9--7----------------
D|-------------------------
A|-------------------------
E|-------------------------

							http://www.guitartabcreator.com
Chords

Instruments
{"strings":[[[".",".",".",".","_",".",".",".",".",".",".",".",".",".",".",".",".",".",".",".",".",".",".",".",".",".",".",".",".",".",".",".",".",".",".",".",".",".",".",".",".",".","."],[".",".",".",".","_",".",".",".",".",".",".",".",".",".",".",".",".",".",".",".",".",".",".",".",".",".",".",".",".",".",".",".",".",".",".",".",".",".",".",".",".",".","."],[".",".",".",".","_",".",0,0,2,2,"h",4,0,".",0,0,2,2,"h",4,0,".",0,0,2,2,"h",4,0,".",0,0,4,"/",5,4,2,"/",4,2,".",".",0],[".",".",".",".","_",".",".",".",".",".",".",".",".",".",".",".",".",".",".",".",".",".",".",".",".",".",".",".",".",".",".",".",".",".",".",".",".",".",".",".",0,2,"."],[".",".",".",".","_",".",".",".",".",".",".",".",".",2,".",".",".",".",".",".",".",3,".",".",".",".",".",".",".",5,".",".",".",".",".",".",".",".",".",".",".",".","."],[3,7,8,10,"_",3,".",".",".",".",".",".",".",".",".",".",".",".",".",".",".",".",".",".",".",".",".",".",".",".",".",".",".",".",".",".",".",".",".",".",".",".","."]],[[".","_",".",".",".",10,10,"_",".",".",10,10,"_",".",".",10,10,12,8,"_",7,".",".","."],[8,"_",7,"/",8,".",".","_",7,8,".",".","_",7,8,".",".",".",".","_",".",10,8,8],[".","_",".",".",".",".",".","_",".",".",".",".","_",".",".",".",".",".",".","_",".",".",".","."],[".","_",".",".",".",".",".","_",".",".",".",".","_",".",".",".",".",".",".","_",".",".",".","."],[".","_",".",".",".",".",".","_",".",".",".",".","_",".",".",".",".",".",".","_",".",".",".","."],[".","_",".",".",".",".",".","_",".",".",".",".","_",".",".",".",".",".",".","_",".",".",".","."]],[[".",".",".","_",".",".",".",".",".",10,".",".",".",".",".",".",".",".",".","_",".",".",".",".",".",".",".","."],[10,"/",12,"_",8,"h",10,12,13,".",11,"p",10,8,10,10,"/",12,8,"_",7,"/",8,".",".",10,"/",12],[".",".",".","_",".",".",".",".",".",".",".",".",".",".",".",".",".",".",".","_",".",".",".",9,7,".",".","."],[".",".",".","_",".",".",".",".",".",".",".",".",".",".",".",".",".",".",".","_",".",".",".",".",".",".",".","."],[".",".",".","_",".",".",".",".",".",".",".",".",".",".",".",".",".",".",".","_",".",".",".",".",".",".",".","."],[".",".",".","_",".",".",".",".",".",".",".",".",".",".",".",".",".",".",".","_",".",".",".",".",".",".",".","."]],[[".",".",".",".",10,".",".",".",".",12,"/",14,15,12,"_",12,14,14,15,".","_",".",".",".",".",".","."],[8,10,12,13,".",11,"p",10,8,".",".",".",".",".","_",".",".",".",".",15,"_",13,12,".",".",".","."],[".",".",".",".",".",".",".",".",".",".",".",".",".",".","_",".",".",".",".",".","_",".",".",14,12,14,12],[".",".",".",".",".",".",".",".",".",".",".",".",".",".","_",".",".",".",".",".","_",".",".",".",".",".","."],[".",".",".",".",".",".",".",".",".",".",".",".",".",".","_",".",".",".",".",".","_",".",".",".",".",".","."],[".",".",".",".",".",".",".",".",".",".",".",".",".",".","_",".",".",".",".",".","_",".",".",".",".",".","."]],[[".",".",7,"h",8,7,8,7,10,7,".","_",".",7,"h",8,7,8,7,10,7,".","_",".",".",".",".",".",".","."],[".",8,".",".",".",".",".",".",".",".",10,"_",8,".",".",".",".",".",".",".",".",10,"_",7,8,".",".",10,"/",12],[9,".",".",".",".",".",".",".",".",".",".","_",".",".",".",".",".",".",".",".",".",".","_",".",".",9,7,".",".","."],[".",".",".",".",".",".",".",".",".",".",".","_",".",".",".",".",".",".",".",".",".",".","_",".",".",".",".",".",".","."],[".",".",".",".",".",".",".",".",".",".",".","_",".",".",".",".",".",".",".",".",".",".","_",".",".",".",".",".",".","."],[".",".",".",".",".",".",".",".",".",".",".","_",".",".",".",".",".",".",".",".",".",".","_",".",".",".",".",".",".","."]],[[".",".",".",14,15,14,".",".","_",12,"/",13,13,13,13,".",".","_",".",".",".",".",".",".",".",".",".","."],[12,12,15,".",".",".",15,15,"_",".",".",".",".",".",".",".",13,"_",13,15,15,"b",16,15,".",".",".","."],[".",".",".",".",".",".",".",".","_",".",".",".",".",".",".",14,".","_",".",".",".",".",".",".",12,14,"/",16],[".",".",".",".",".",".",".",".","_",".",".",".",".",".",".",".",".","_",".",".",".",".",".",".",".",".",".","."],[".",".",".",".",".",".",".",".","_",".",".",".",".",".",".",".",".","_",".",".",".",".",".",".",".",".",".","."],[".",".",".",".",".",".",".",".","_",".",".",".",".",".",".",".",".","_",".",".",".",".",".",".",".",".",".","."]],[[".",".",".",15,15,15,"b",17,15,14,"_",".",12,12,"h",13,13,15,".","."],[12,12,15,".",".",".",".",".",".",".","_",15,".",".",".",".",".",".",15,17],[".",".",".",".",".",".",".",".",".",".","_",".",".",".",".",".",".",".",".","."],[".",".",".",".",".",".",".",".",".",".","_",".",".",".",".",".",".",".",".","."],[".",".",".",".",".",".",".",".",".",".","_",".",".",".",".",".",".",".",".","."],[".",".",".",".",".",".",".",".",".",".","_",".",".",".",".",".",".",".",".","."]],[[".",".",8,7,8,7,10,7,".","_",".",7,8,7,8,7,10,7,".","_",".",".",8,7,8,10,7,"."],[10,12,".",".",".",".",".",".",10,"_",8,".",".",".",".",".",".",".",10,"_",10,12,".",".",".",".",".",10],[".",".",".",".",".",".",".",".",".","_",".",".",".",".",".",".",".",".",".","_",".",".",".",".",".",".",".","."],[".",".",".",".",".",".",".",".",".","_",".",".",".",".",".",".",".",".",".","_",".",".",".",".",".",".",".","."],[".",".",".",".",".",".",".",".",".","_",".",".",".",".",".",".",".",".",".","_",".",".",".",".",".",".",".","."],[".",".",".",".",".",".",".",".",".","_",".",".",".",".",".",".",".",".",".","_",".",".",".",".",".",".",".","."]],[[".",".",".",".",".",".",".",".","."],[8,".",".",10,"/",12,11,"/",12],[".",9,7,".",".",".",".",".","."],[".",".",".",".",".",".",".",".","."],[".",".",".",".",".",".",".",".","."],[".",".",".",".",".",".",".",".","."]]],"numberofstrings":6,"notes":["E","B","G","D","A","E","B"],"capo":0,"stringnotes":["E4","B3","G3","D3","A2","E2"],"comments":["Stave 1:","Stave 2:","Stave 3:","Stave 4:","Stave 5:","Stave 6:","Stave 7:","Stave 8:","Stave 9:"],"timing":[["W","W","W","W",null,"W","W","W","W","W",null,"W","W","W","W","W","W","W",null,"W","W","W","W","W","W","W",null,"W","W","W","W","W","W",null,"W","W","W","W","W","W","W","W","W"],["W",null,"W",null,"W","W","W",null,"W","W","W","W",null,"W","W","W","W","W","W","W","W","W","W","W"],["W","W","W",null,"W",null,"W","W","W","W","W",null,"W","W","W","W",null,"W","W",null,"W",null,"W","W","W","W",null,"W"],["W","W","W","W","W","W",null,"W","W","W",null,"W","W","W",null,"W","W","W","W","W",null,"W","W","W","W","W","W"],["W","W","W","W","W","W","W","W","W","W","W",null,"W","W",null,"W","W","W","W","W","W","W","W","W","W","W","W","W",null,"W"],["W","W","W","W","W","W","W","W",null,"W",null,"W","W","W","W","W","W",null,"W","W","W",null,"W","W","W","W",null,"W"],["W","W","W","W","W","W",null,"W","W","W",null,"W","W","W",null,"W","W","W","W","W"],["W","W","W","W","W","W","W","W","W",null,"W","W","W","W","W","W","W","W","W",null,"W","W","W","W","W","W","W","W"],["W","W","W","W",null,"W","W",null,"W"]],"timingvisible":false,"tabcounter":9,"stave":8,"totalstaves":9,"instrument":"6guitar","selectedtuning":"6_standard","version":"13"}

Member for

9 months 2 weeks
Submitted by mackymusika on Thu, 2021-03-04 02:22