Heartbreak Anniversary

01234567891011121314151617181920212223
E
B
G
D
A
E
B
0 1 2 3 4 5 6 7 8 9 10 11 12 13 14 15 16 17 18 19 20 21 22 23
(/) Slide Up  (\) Slide Down  (h) Hammer On  (p) Pull Off  (b) Bend (r) Release (v) Vibrato

Stave 1:

E|------------------------------------------------------------------
B|------------------------------------------------------------------
G|-----------5--7--7/9--9\7p5--5--------------5--7--9--9\7p5--5--5--
D|-----5--7-----------------------------5--7------------------------
A|------------------------------------------------------------------
E|------------------------------------------------------------------

Stave 2:

E|--------------------------------------------------------------------------
B|--------------------------------------------------------------------------
G|-----7/9--9\7p5--5--7--------5--7/9--9\7p5--5--5-----5--7/9--9\7p5--5--7--
D|--5-----------------------------------------------------------------------
A|--------------------------------------------------------------------------
E|--------------------------------------------------------------------------

Stave 3:

E|-------------------------------------------------------------------------------
B|-------------------------------------------------------------------------------
G|--5--7/9--9\7p5--5-----5--7/9--9--9--10--9-----7/9--9--9--10--9--7p5--7/8\7p5--
D|-------------------------------------------------------------------------------
A|-------------------------------------------------------------------------------
E|-------------------------------------------------------------------------------

Stave 4:

E|---------------------------------------------------------------------------------------
B|-----6/8--6p5--------------------5--6--6/8--6p5----------------------------------------
G|--5------------7--------5--5--7------------------7-----7/9--9--10--9--7--5--------7/9--
D|----------------------------------------------------------------------------7--5-------
A|---------------------------------------------------------------------------------------
E|---------------------------------------------------------------------------------------

Stave 5:

E|---------------------------------------------------------------------------------
B|-------------------------------------6/8--6p5-----------------5--6--6/8--6p5-----
G|--10--9--7--5--------7/9--6/7-----5------------7-----5--5--7------------------7--
D|---------------7--5--------------------------------------------------------------
A|---------------------------------------------------------------------------------
E|---------------------------------------------------------------------------------

							http://www.guitartabcreator.com
Chords

Instruments
{"strings":[[["_",".",".",".",".",".",".",".",".",".",".",".",".",".","_","_",".",".",".",".",".",".",".",".",".",".",".","."],["_",".",".",".",".",".",".",".",".",".",".",".",".",".","_","_",".",".",".",".",".",".",".",".",".",".",".","."],["_",".",".",5,7,7,"/",9,9,"\\",7,"p",5,5,"_","_",".",".",5,7,9,9,"\\",7,"p",5,5,5],["_",5,7,".",".",".",".",".",".",".",".",".",".",".","_","_",5,7,".",".",".",".",".",".",".",".",".","."],["_",".",".",".",".",".",".",".",".",".",".",".",".",".","_","_",".",".",".",".",".",".",".",".",".",".",".","."],["_",".",".",".",".",".",".",".",".",".",".",".",".",".","_","_",".",".",".",".",".",".",".",".",".",".",".","."]],[[".",".",".",".",".",".",".",".",".",".",".","_","_",".",".",".",".",".",".",".",".",".",".",".","_",".",".",".",".",".",".",".",".",".",".","."],[".",".",".",".",".",".",".",".",".",".",".","_","_",".",".",".",".",".",".",".",".",".",".",".","_",".",".",".",".",".",".",".",".",".",".","."],[".",7,"/",9,9,"\\",7,"p",5,5,7,"_","_",5,7,"/",9,9,"\\",7,"p",5,5,5,"_",5,7,"/",9,9,"\\",7,"p",5,5,7],[5,".",".",".",".",".",".",".",".",".",".","_","_",".",".",".",".",".",".",".",".",".",".",".","_",".",".",".",".",".",".",".",".",".",".","."],[".",".",".",".",".",".",".",".",".",".",".","_","_",".",".",".",".",".",".",".",".",".",".",".","_",".",".",".",".",".",".",".",".",".",".","."],[".",".",".",".",".",".",".",".",".",".",".","_","_",".",".",".",".",".",".",".",".",".",".",".","_",".",".",".",".",".",".",".",".",".",".","."]],[[".",".",".",".",".",".",".",".",".",".","_",".",".",".",".",".",".",".",".","_",".",".",".",".",".",".",".",".",".",".",".",".",".",".",".",".","."],[".",".",".",".",".",".",".",".",".",".","_",".",".",".",".",".",".",".",".","_",".",".",".",".",".",".",".",".",".",".",".",".",".",".",".",".","."],[5,7,"/",9,9,"\\",7,"p",5,5,"_",5,7,"/",9,9,9,10,9,"_",7,"/",9,9,9,10,9,7,"p",5,7,"/",8,"\\",7,"p",5],[".",".",".",".",".",".",".",".",".",".","_",".",".",".",".",".",".",".",".","_",".",".",".",".",".",".",".",".",".",".",".",".",".",".",".",".","."],[".",".",".",".",".",".",".",".",".",".","_",".",".",".",".",".",".",".",".","_",".",".",".",".",".",".",".",".",".",".",".",".",".",".",".",".","."],[".",".",".",".",".",".",".",".",".",".","_",".",".",".",".",".",".",".",".","_",".",".",".",".",".",".",".",".",".",".",".",".",".",".",".",".","."]],[[".",".",".",".",".",".",".",".","_","_",".",".",".",".",".",".",".",".",".",".",".",".","_",".",".",".",".",".",".",".",".",".",".",".",".","."],[".",6,"/",8,6,"p",5,".","_","_",".",".",".",5,6,6,"/",8,6,"p",5,".","_",".",".",".",".",".",".",".",".",".",".",".",".","."],[5,".",".",".",".",".",".",7,"_","_",5,5,7,".",".",".",".",".",".",".",".",7,"_",7,"/",9,9,10,9,7,5,".",".",7,"/",9],[".",".",".",".",".",".",".",".","_","_",".",".",".",".",".",".",".",".",".",".",".",".","_",".",".",".",".",".",".",".",".",7,5,".",".","."],[".",".",".",".",".",".",".",".","_","_",".",".",".",".",".",".",".",".",".",".",".",".","_",".",".",".",".",".",".",".",".",".",".",".",".","."],[".",".",".",".",".",".",".",".","_","_",".",".",".",".",".",".",".",".",".",".",".",".","_",".",".",".",".",".",".",".",".",".",".",".",".","."]],[[".",".",".",".",".",".",".",".",".",".",".",".","_",".",".",".",".",".",".",".",".","_",".",".",".",".",".",".",".",".",".",".",".","."],[".",".",".",".",".",".",".",".",".",".",".",".","_",".",6,"/",8,6,"p",5,".","_",".",".",".",5,6,6,"/",8,6,"p",5,"."],[10,9,7,5,".",".",7,"/",9,6,"/",7,"_",5,".",".",".",".",".",".",7,"_",5,5,7,".",".",".",".",".",".",".",".",7],[".",".",".",".",7,5,".",".",".",".",".",".","_",".",".",".",".",".",".",".",".","_",".",".",".",".",".",".",".",".",".",".",".","."],[".",".",".",".",".",".",".",".",".",".",".",".","_",".",".",".",".",".",".",".",".","_",".",".",".",".",".",".",".",".",".",".",".","."],[".",".",".",".",".",".",".",".",".",".",".",".","_",".",".",".",".",".",".",".",".","_",".",".",".",".",".",".",".",".",".",".",".","."]]],"numberofstrings":6,"notes":["E","B","G","D","A","E","B"],"capo":0,"stringnotes":["E4","B3","G3","D3","A2","E2"],"comments":["Stave 1:","Stave 2:","Stave 3:","Stave 4:","Stave 5:"],"timing":[[null,"W","W","W","W","W",null,"W","W",null,"W",null,"W","W",null,null,"W","W","W","W","W","W",null,"W",null,"W","W","W"],["W","W",null,"W","W",null,"W",null,"W","W","W",null,null,"W","W",null,"W","W",null,"W",null,"W","W","W",null,"W","W","W","W","W",null,"W",null,"W","W","W"],["W","W",null,"W","W",null,"W","W","W","W",null,"W","W","W","W","W","W","W","W",null,"W","W","W","W","W","W","W","W","W","W","W",null,"W",null,"W","W","W"],["W","W",null,"W","W","W","W","W","W","W","W","W","W","W","W","W",null,"W","W",null,"W","W",null,"W",null,"W","W","W","W","W","W","W","W","W","W","W"],["W","W","W","W","W","W","W",null,"W","W",null,"W",null,"W","W",null,"W","W",null,"W","W",null,"W","W","W","W","W","W",null,"W","W","W","W","W"]],"timingvisible":false,"tabcounter":34,"stave":4,"totalstaves":5,"instrument":"6guitar","selectedtuning":"6_standard","version":"13"}

Member for

9 months 2 weeks
Submitted by mackymusika on Thu, 2021-03-04 23:33