Sound will begin in 5 seconds

TLOU You and Me FINAL2

Chords
01234567891011121314151617181920212223
E
B
G
D
A
E
B
0 1 2 3 4 5 6 7 8 9 10 11 12 13 14 15 16 17 18 19 20 21 22 23
Song Science #1: How Pros Use 6 Chords to Write Hit Songs
(/) Slide Up  (\) Slide Down  (h) Hammer On  (p) Pull Off  (b) Bend (r) Release (v) Vibrato

Stave 1:

E|-----3--------5--------------3-----------3--------5--------------7-----------3--------5-----------3--
B|-----5--5-----7--7-----------0-----------5--5-----7--7-----------5-----------5--5-----7--7--------0--
G|-----------------------------------------------------------------------------------------------------
D|-----5--------7--------------2-----------5--------7--------------------------5--------7-----------2--
A|-----------------------------------------------------------------7-----------------------------------
E|-----------------------------------------------------------------------------------------------------

Stave 2:

E|-----6--5--3----------------------------------------------------------------------------------------------
B|-----8--7--5-----------5-----3-----3/5-----------------------------------3--------2--------1--------0-----
G|-------------------------------------------------------------------------0--------0--------0--------0-----
D|-----8--7--5-------------------------------------------------------------2--------2--------2--------2-----
A|----------------------------------------------------------------------------------------------------------
E|----------------------------------------------------------------------------0--------0--------0--------0--

Stave 3:

E|-----5-----5h7p5-----------3--2--0-------------------3-----
B|-----5------------5--------1-----------3/7--7-----------5--
G|-----6---------------------0-------------------------------
D|-----7-----------------------------------------------------
A|-----------------------------------------------------------
E|-----------------------------------------------------0-----

http://www.guitartabcreator.com
Guitar Tab Creator is intended to store guitar tab created through the tool. It currently does not support in-line text editing. Any text you place in here will be lost. If you need to comment on your tab, please use the "Tab Notes" section located below.