Sound will begin in 5 seconds

Joe Walsh - The Confessor (Intro)

Chords
01234567891011121314151617181920212223
E
B
G
D
A
E
B
0 1 2 3 4 5 6 7 8 9 10 11 12 13 14 15 16 17 18 19 20 21 22 23
(/) Slide Up  (\) Slide Down  (h) Hammer On  (p) Pull Off  (b) Bend (r) Release (v) Vibrato

Stave 1:

D|--0-----------0--0--
B|-----2--0-----0--7--
G|-----------2--1--7--
D|--------------0--0--
A|--------------------
D|--------------------

Stave 2:

D|--0-----------0--7--
B|-----2--0-----9--7--
G|-----------2--9--7--
D|--------------0--0--
A|--------------------
D|--------------------

Stave 3:

D|-------------------------------------------------0--
B|-------------------------------------------------3--
G|-------------------------------------------------2--
D|-------0--0--0-------0--3p0-------0-----3--2--0--0--
A|--3h5-----------3h5----------3h5--------3--2--0--0--
D|-------------------------------------0--3--2--0--0--

Stave 4:

D|--0--0--0--0--
B|--1--1--0--2--
G|--2--0--0--2--
D|--0--2--2--0--
A|-----0--0--0--
D|-----------0--

Stave 5:

D|--0--0--0--7--7--7--5--0--
B|--2--1--0--7--7--7--5--3--
G|--2--0--0--7--5--4--3--2--
D|--0--2--2--0--0--0--0--0--
A|-----0--0--------------0--
D|-----------------------0--

Stave 6:

D|--0--0--0--0--
B|--1--1--0--3--
G|--2--0--0--2--
D|--3--2--2--0--
A|--0--0--0--0--
D|-----------0--

http://www.guitartabcreator.com
Guitar Tab Creator is intended to store guitar tab created through the tool. It currently does not support in-line text editing. Any text you place in here will be lost. If you need to comment on your tab, please use the "Tab Notes" section located below.