Sound will begin in 5 seconds

Consume and Destroy

01234567891011121314151617181920212223
E
B
G
D
A
E
B
0 1 2 3 4 5 6 7 8 9 10 11 12 13 14 15 16 17 18 19 20 21 22 23
Learn to Play Guitar Online
(/) Slide Up  (\) Slide Down  (h) Hammer On  (p) Pull Off  (b) Bend (r) Release (v) Vibrato

Stave 1:

G|----------------------------------------------
D|----------------------------------------------
A|----------------------------------------------
E|----------------------------------------------
B|--0--0--0--0--0--0--0--0-----0--0--0--0-----0r

Stave 2:

G|------------------------------------
D|------------------------------------
A|------------------------------------
E|------------------------------------
B|--5-----5-----5--5-----5/8--8-----8r

Stave 3:

G|--------------------------------------------------
D|--------------------------------------------------
A|--------------------------------------------------
E|--------------------------------------------------
B|--8--8--8--8/12--12-----12--12-----12--8--8-----8r

Stave 4:

G|-----------------------------------------------------
D|-----------------------------------------------------
A|-----------------------------------------------------
E|-----------------------------------------------------
B|--0--0--0--0--0--0--0--0-----0--0-----0--0-----0--0--

Stave 5:

G|--------------------------------
D|--------------------------------
A|--------------------------------
E|--------------------------------
B|--0--0--0--0--0--0-----0--0--0--

Stave 6:

G|-----------------------------------------------------
D|-----------------------------------------------------
A|-----------------------------------------------------
E|-----------------------------------------------------
B|--1--1--1--1--1--1--1--1-----1--1-----1--1-----1--1--

Stave 7:

G|--------------------------------
D|--------------------------------
A|--------------------------------
E|--------------------------------
B|--1--1--1--1--1--1-----1--1--1--

Stave 8:

G|----
D|----
A|----
E|----
B|--0r

Stave 9:

G|--------------------------------------------------
D|--------------------------------------------------
A|--------------------------------------------------
E|--------5-----5h7-----8-----7--------4-----4h7p7--
B|--0--0-----0-------0-----0-----0--0-----0---------

Stave 10:

G|-------------------------------------------------
D|-------------------------------------------------
A|-------------------------------------7--5--------
E|--------5-----5h7-----8-----7--------------8--7--
B|--0--0-----0-------0-----0-----0--0--------------

Stave 11:

G|-------------------------------------------------------------------------7--7--10--10--
D|-------------------------------------------------------------6--6--9--9----------------
A|-------------------------------------------------5--5--8--8----------------------------
E|--------5-----5h7-----8-----7--------4--4--7--7----------------------------------------
B|--0--0-----0-------0-----0-----0--0----------------------------------------------------

Stave 12:

G|--------------------------------------------------
D|--------------------------------------------------
A|--------------------------------------------------
E|--------------------------------------------------
B|--0--3--1--0--4--3--6--4--0--3--1--0--4--3--1--3--

Stave 13:

G|-----------------------------------------------
D|-----------------------------------------------
A|-----------------------------------------------
E|--------4--------------------4-----------------
B|--0--1-----0--0--0-----0--1-----0--0--0-----0--

Stave 14:

G|-----------------------------------------------
D|-----------------------------------------------
A|-----------------------------------------------
E|--------3--------------------3-----------------
B|--0--1-----0--0--0-----0--1-----0--0--0-----0--

Stave 15:

G|--------------------------------------------------
D|--------------------------------------------------
A|--------------------------------------------------
E|--------------------------------------------------
B|--5--5--5--5--5--5--5--5--5--5--5--5--5--5--5--5--

Stave 16:

G|--------------------------------------------------
D|--------------------------------------------------
A|--------------------------------------------------
E|--------------------------------------------------
B|--4--4--4--4--4--4--4--4--4--4--4--4--4--4--4--4--

Stave 17:

G|--------------------------------------------------
D|--------------------------------------------------
A|--------------------------------------------------
E|--------------------------------------------------
B|--1--1--1--1--1--1--1--1--1--1--1--1--1--1--1--1--

Stave 18:

G|-----------------------------------------------
D|-----------------------------------------------
A|-----------------------------------------------
E|-----------------------------------------------
B|--4--4--4--4--4--4--4--4--4--4--4--4--4--4--4--

Stave 19:

G|--------------------------------------
D|--------------------------------------
A|--------------------------------------
E|--------------------------5--5--5--5--
B|--0--0--0--0--0--0--0--0--------------

Stave 20:

G|--------------------------------------
D|--------------------------------------
A|--------------------------------------
E|--------------------------5--5--5--5--
B|--0--0--0--0--0--0--0--0--------------

Stave 21:

G|--------------------------------------
D|--------------------------------------
A|--------------------------------------
E|--------------------------4--4--4--4--
B|--0--0--0--0--0--0--0--0--------------

Stave 22:

G|--------------------------------------
D|--------------------------------------
A|--------------------------------------
E|--------------------------4--4--4--4--
B|--0--0--0--0--0--0--0--0--------------

Stave 23:

G|--------------------------------------
D|--------------------------------------
A|--------------------------------------
E|--------------------------1--1--1--1--
B|--0--0--0--0--0--0--0--0--------------

Stave 24:

G|--------------------------------------
D|--------------------------------------
A|--------------------------------------
E|--------------------------1--1--1--1--
B|--0--0--0--0--0--0--0--0--------------

Stave 25:

G|--------------------------------------
D|--------------------------------------
A|--------------------------------------
E|--------------------------4--4--4--4--
B|--0--0--0--0--0--0--0--0--------------

Stave 26:

G|--------------------------------------
D|--------------------------------------
A|--------------------------------------
E|--------------------------4--4--4--4--
B|--0--0--0--0--0--0--0--0--------------

http://www.guitartabcreator.com
Guitar Tab Creator is intended to store guitar tab created through the tool. It currently does not support in-line text editing. Any text you place in here will be lost. If you need to comment on your tab, please use the "Tab Notes" section located below.