Sound will begin in 5 seconds

surprise holiday part 2

01234567891011121314151617181920212223
E
B
G
D
A
E
B
0 1 2 3 4 5 6 7 8 9 10 11 12 13 14 15 16 17 18 19 20 21 22 23
Song Science #1: How Pros Use 6 Chords to Write Hit Songs
(/) Slide Up  (\) Slide Down  (h) Hammer On  (p) Pull Off  (b) Bend (r) Release (v) Vibrato

Stave 1:

E|--------------10--0--8--9--8-----------5--2--2--2--2--2--------
B|---------------------------------------2--2--3--4--3--2--------
G|---------------------------------------------------------3-----
D|--12--12--12------------------4--4--4--------------------3--2--
A|--11--11--11------------------3--4--4--------------------3--2--
E|--9---9---9-------------------2--2--2--------------------1--0--

Stave 2:

E|--------------------------------------------------------------------------------------
B|--------------------------------------------------------------------------------------
G|--------------------------------------------------------------------------------------
D|--------------------------------------------------------------------------------------
A|-----3--2--1-----3--2-----3--2--1-----3--2-----3--2--1-----3--2-----3--2--1-----3--2--
E|--2-----------2--------2-----------2--------2-----------2--------2-----------2--------

Stave 3:

E|-----------------------------------------------------------------------0b
B|-----------------------------------------------------------------------3-
G|-------------------------------------------------------------------------
D|-------------------------------------------------------------------------
A|--------3--2--1--------3--2--1-----3--2--------3--2--1--------3--2--1----
E|--2--2-----------2--2-----------2--------2--2-----------2--2-------------

Stave 4:

E|--0-----------
B|--15--14--14--
G|--16--14--14--
D|--16--16--14--
A|--14--14--14--
E|--------------

http://www.guitartabcreator.com
Guitar Tab Creator is intended to store guitar tab created through the tool. It currently does not support in-line text editing. Any text you place in here will be lost. If you need to comment on your tab, please use the "Tab Notes" section located below.