Sound will begin in 5 seconds

princess bubblegum

01234567891011121314151617181920212223
E
B
G
D
A
E
B
0 1 2 3 4 5 6 7 8 9 10 11 12 13 14 15 16 17 18 19 20 21 22 23
Song Science #1: How Pros Use 6 Chords to Write Hit Songs
(/) Slide Up  (\) Slide Down  (h) Hammer On  (p) Pull Off  (b) Bend (r) Release (v) Vibrato

Stave 1:

E|---------------------------------------------------------------------
B|---------------------------------------------------------------------
G|---------------------------------------------------------------------
D|-----9------7--------------------------------------9--7--5--2--------
A|--------10-----9--10--7--9------7------------------9--7--5--2--------
E|--7-------------------------10-----9--10--7--9--5--7--5--3--0--2--3--

Stave 2:

E|-------------------------------------------
B|-------------------------------------------
G|-------------------------------------------
D|-------------------------------------------
A|----------------------------0--------------
E|----2--3--2--0--0--3--2--0-----0--2--2--0--

Stave 3:

E|----7-----7-----------7--
B|----7-----7-----------7--
G|----7-----7-----------7--
D|-------------------------
A|-------5-----5--7--8-----
E|-------5-----5--7--8-----

Stave 4:

E|----
B|----
G|----
D|----
A|----
E|----

Stave 5:

E|------------------------------------------------------------------------------------------------------
B|--------------------------------------12--12--13--12------------------------------------------13--15--
G|----------12----------14------------------------------14----------14----------------------14----------
D|--12--14------14--12------14--12--14----------------------12--14------12--14--12--12--14--------------
A|------------------------------------------------------------------------------------------------------
E|------------------------------------------------------------------------------------------------------

Stave 6:

E|--14--12--14--12------------------12-----------------------------------------
B|------------------15--14--14--15------12--14--15------------------12---------
G|--------------------------------------------------14--12--12--14------11--9--
D|-----------------------------------------------------------------------------
A|-----------------------------------------------------------------------------
E|-----------------------------------------------------------------------------

Stave 7:

E|-------------------------------12--15--14--12----------14--12-------------------------
B|-------------------12--14--15------------------14--15----------15----------12---------
G|-----------12--14--------------------------------------------------12--14------11--9--
D|----9--11-----------------------------------------------------------------------------
A|--------------------------------------------------------------------------------------
E|--------------------------------------------------------------------------------------

Stave 8:

E|--------------
B|--------------
G|--4-----------
D|--4--5--2--4--
A|--2--5--2--4--
E|--2--3--0--2--

http://www.guitartabcreator.com
Guitar Tab Creator is intended to store guitar tab created through the tool. It currently does not support in-line text editing. Any text you place in here will be lost. If you need to comment on your tab, please use the "Tab Notes" section located below.