Sound will begin in 5 seconds

men who hate women part 3 outro

01234567891011121314151617181920212223
E
B
G
D
A
E
B
0 1 2 3 4 5 6 7 8 9 10 11 12 13 14 15 16 17 18 19 20 21 22 23
Song Science #1: How Pros Use 6 Chords to Write Hit Songs
(/) Slide Up  (\) Slide Down  (h) Hammer On  (p) Pull Off  (b) Bend (r) Release (v) Vibrato

Stave 1:

E|----------------------------------------
B|----------------------------------------
G|---------------------------------14-----
D|-------------------------14--16---------
A|-----------------14--16-----------------
E|--0--14--16--17----------------------0--

Stave 2:

E|-----------------------------------------------------------------------------
B|-----------------------------------------------------------------------------
G|-----------------------------------------------------------------------------
D|-----------------------------------------------------------------------------
A|-----------------------------------------------------------------------------
E|--2--3--3--3--3--3--5--5--5--5--5--0--3--5--5--5--5--5--5--7--7--7--7--7--0--

Stave 3:

E|-----------------------------------------------------------------
B|-----------------------------------------------------------------
G|-----------------------------------------------------------------
D|-----------------------------------------------------------------
A|-----------------------------------------------------------------
E|--8--8--8--8--8--8--8--7--7--7--7--3--3--3--5--5--5--5--5--5--5--

Stave 4:

E|------------------------------------------------
B|------------------------------------------------
G|------------------------------------------------
D|------------------------------------------------
A|------------------------------------------------
E|--2--3--3--0--2b3--0--5-----5--2--0--3b4--0--7--

Stave 5:

E|-------------------------------------------------------------------
B|-------------------------------------------------------------------
G|-------------------------------------------------------------------
D|-------------------------------------------------------------------
A|-------------------------------------------------------------------
E|--6--7--7--0--3--5--7--0--2--3--3--0--5b7--5-----5--5--5--5--3--3--

Stave 6:

E|-----------------------------------------------
B|-----------------------------------------------
G|-----------------------------------------------
D|-----------------------------------------------
A|-----------------------------------------------
E|--2--3--3--0--10--8--7--0--2b3--2--0--3--5--3--

http://www.guitartabcreator.com
Guitar Tab Creator is intended to store guitar tab created through the tool. It currently does not support in-line text editing. Any text you place in here will be lost. If you need to comment on your tab, please use the "Tab Notes" section located below.