Sound will begin in 5 seconds

MEN who hate women part 2

Chords
01234567891011121314151617181920212223
E
B
G
D
A
E
B
0 1 2 3 4 5 6 7 8 9 10 11 12 13 14 15 16 17 18 19 20 21 22 23
Song Science #1: How Pros Use 6 Chords to Write Hit Songs
(/) Slide Up  (\) Slide Down  (h) Hammer On  (p) Pull Off  (b) Bend (r) Release (v) Vibrato

Stave 1:

E|--------------------------------------------------------------------------------
B|--------------------------------------------------------------------------------
G|--------------------------------------------------------------------------------
D|--------------------------------------------------------------------------------
A|--------------------------0--2-----2-----------------------------0--2-----2-----
E|--5--3--1--3--5--3--1--3--------------3--5--3--1--3--5--3--1--3--------------3--

Stave 2:

E|--------------------------------------------------------------------------
B|--------------------------------------------------------------------------
G|--------4--6--7-----------6--7--9-----------7--12--11-----9---------------
D|--4-----4--6--7-----2-----6--7--9-----5-----7--12--11-----9--------10--7--
A|--4-----2--4--5-----2-----4--5--7-----5-----5--10--9------7--------10--7--
E|--2-----------------0-----------------3-------------------7--------8---5--

Stave 3:

E|-----------------------------------------------------------------------------------------------
B|------------------------------------------------------------12--10--12--10--8--8--10--8--7--5--
G|--7--------5--7--5--7--5---------------------------------9-------------------------------------
D|--7--5--7-----------------7--5--7--5--------------9--11----------------------------------------
A|--5-----------------------------------7--5-----------------------------------------------------
E|--5--------------------------------------------------------------------------------------------

Stave 4:

E|-----------------------------------------------------------------------5--7--8--7--5--------------------
B|------------------15--17--14----------------------------------5--6--8-----------------8--6--5-----------
G|----------14--16--------------16--14--------------------5--7-----------------------------------7--5-----
D|--14--16---------------------------------------3--5--7-----------------------------------------------7--
A|-----------------------------------------3--5-----------------------------------------------------------
E|--------------------------------------------------------------------------------------------------------

Stave 5:

E|--
B|--
G|--
D|--
A|--
E|--

http://www.guitartabcreator.com
Guitar Tab Creator is intended to store guitar tab created through the tool. It currently does not support in-line text editing. Any text you place in here will be lost. If you need to comment on your tab, please use the "Tab Notes" section located below.