Sound will begin in 5 seconds

kiss

01234567891011121314151617181920212223
E
B
G
D
A
E
B
0 1 2 3 4 5 6 7 8 9 10 11 12 13 14 15 16 17 18 19 20 21 22 23
Song Science #1: How Pros Use 6 Chords to Write Hit Songs
(/) Slide Up  (\) Slide Down  (h) Hammer On  (p) Pull Off  (b) Bend (r) Release (v) Vibrato

Stave 1:

E|----------8--10--8------8-------------------------8------------------------
B|--10--11------------11-----11--10--10--8--10--11-----11--10--11--10--8--8--
G|---------------------------------------------------------------------------
D|---------------------------------------------------------------------------
A|---------------------------------------------------------------------------
E|---------------------------------------------------------------------------

Stave 2:

E|-------------8----------------------------------------------------------
B|--8--10--11-----11--10--11--10--8--8--6--8--10--11--10--8--10--8--6--6--
G|------------------------------------------------------------------------
D|------------------------------------------------------------------------
A|------------------------------------------------------------------------
E|------------------------------------------------------------------------

Stave 3:

E|----------------------------------------------------------------------------------
B|----------------------------------------------------------------------------------
G|----------------------------------------------------------------------------------
D|----------10--12--12--10----------10--12--12--10--12--12--12--10--10--7--7--7--5--
A|----------12--13--13--12----------12--13--13--12--13--13--13--12--12--8--8--8--7--
E|--10--10------------------10--10------------------12--12--12--10--10--6--6--6--6--

Stave 4:

E|-----------5-----------5-----------3---------------7--
B|-----------6-----------6-----------5-----------10--8--
G|-----------7-----------7-----------5-----------10--9--
D|-----------7-----------7-----------5-----------10--9--
A|--5--5--5--5--5--5--5--5--3--3--3--3--8--8--8--8---7--
E|------------------------------------------------------

http://www.guitartabcreator.com
Guitar Tab Creator is intended to store guitar tab created through the tool. It currently does not support in-line text editing. Any text you place in here will be lost. If you need to comment on your tab, please use the "Tab Notes" section located below.