Sound will begin in 5 seconds

fuk nose

01234567891011121314151617181920212223
E
B
G
D
A
E
B
0 1 2 3 4 5 6 7 8 9 10 11 12 13 14 15 16 17 18 19 20 21 22 23
Song Science #1: How Pros Use 6 Chords to Write Hit Songs
(/) Slide Up  (\) Slide Down  (h) Hammer On  (p) Pull Off  (b) Bend (r) Release (v) Vibrato

Stave 1:

E|-----
B|--9--
G|--8--
D|--9--
A|--7--
E|-----

Stave 2:

E|--------------------------12--10--8--10--8------8------------------------------------------------------
B|--------------------------------------------12-----12--10--12--10--8--10--8------8---------------------
G|-----------------------------------------------------------------------------12-----12--10--12--10--9--
D|-------------------------------------------------------------------------------------------------------
A|-------------------------------------------------------------------------------------------------------
E|--7--7--7--7--7--7--7--7-------------------------------------------------------------------------------

Stave 3:

E|--------------------------------------------------------
B|--------------------------------------------------------
G|--------------------------------------------------------
D|--------------------------------------------------------
A|--------------------------------------------------------
E|--7--7--7--7--7--7--7--7--3--3--3--3--3--5--5--5--5--5--

Stave 4:

E|----------------------------------------------------------
B|----------------------------------------------------------
G|----------------------------------------------------------
D|----------------------------------------------------------
A|----------------------------------------------------------
E|--7--7--7--7--7--7--7--7--3--3--3--3--10--10--10--10--10--

Stave 5:

E|--10b15--15--12--13------12----------------------------------------------------------------------------------------------------------------
B|---------------------15------13--15--12--13------12----------------------------------------------------------------------------------------
G|---------------------------------------------14------12--14------12------------------------------------------------------------------------
D|-------------------------------------------------------------15------14--15--12--14------12------------------------------------------------
A|-------------------------------------------------------------------------------------15------14--15--12--14------12------------------------
E|-------------------------------------------------------------------------------------------------------------15------13--15--12--13--10b0--

Stave 6:

E|------------10--12--
B|------------12--14--
G|------------12--14--
D|------------12--14--
A|------------10--12--
E|--10b0--10----------

Stave 7:

E|--12--7--19--
B|--13--8--20--
G|--14--9--17--
D|-------------
A|-------------
E|-------------

http://www.guitartabcreator.com
Guitar Tab Creator is intended to store guitar tab created through the tool. It currently does not support in-line text editing. Any text you place in here will be lost. If you need to comment on your tab, please use the "Tab Notes" section located below.