Sound will begin in 5 seconds

dynamo

Chords
01234567891011121314151617181920212223
E
B
G
D
A
E
B
0 1 2 3 4 5 6 7 8 9 10 11 12 13 14 15 16 17 18 19 20 21 22 23
Song Science #1: How Pros Use 6 Chords to Write Hit Songs
(/) Slide Up  (\) Slide Down  (h) Hammer On  (p) Pull Off  (b) Bend (r) Release (v) Vibrato

Stave 1:

E|----------------1--2--3--0-----------------1--2--3--0----------------------
B|-------1--2--3--------------------1--2--3----------------------------------
G|---------------------------------------------------------------------------
D|--4--3-----------------------4--3-----------------------4--3--4--3--4\3--0--
A|--4--3-----------------------4--3-----------------------4--3--4--3--4-------
E|--2--1-----------------------2--1-----------------------2--1--2--1--2-------

Stave 2:

E|-------
B|----8--
G|----9--
D|----8--
A|----7--
E|-------

Stave 3:

E|---------------------------------------------------------------------------------------
B|---------------------------------------------------------------------------------------
G|---------------------------------------------------------------------------------------
D|-----------------9--11--------------9--11-----------------9--11-----------------9--11--
A|--9--11--11--11---------11--11--11---------9--11--11--11---------9--11--11--11---------
E|---------------------------------------------------------------------------------------

Stave 4:

E|----------------------------------------------------------------------------
B|----------------------------------------------------------------------------
G|----------------------------------------------------------------------------
D|--------------------9--11------------------9--11--------9--11--------9--11--
A|----------------------------------------------------------------------------
E|----11--12--12--12---------11--12--12--12---------7--9---------7--9---------

Stave 5:

E|-----------------------------------------------------------------------------------------
B|-------------------9--10-----------------9--10--------------9--10-----------------9--10--
G|---------------11--------------------11-----------------11--------------------11---------
D|-----------------------------------------------------------------------------------------
A|----9--11--11-------------9--11--11-------------11--11-------------9--11--11-------------
E|-----------------------------------------------------------------------------------------

Stave 6:

E|--------------------------------------------------------------------------------------------
B|----------------9--10--12--------------9--10--12-----------10--12--14-----------12--14--16--
G|--------------------------------------------------------------------------------------------
D|--------------------------------------------------------------------------------------------
A|--------------------------------------------------------------------------------------------
E|----11--12--12-------------11--12--12-------------7--9--9--------------7--9--9--------------

Stave 7:

E|---------------------------------------
B|---------------------------------------
G|--12--11-------------------------------
D|--12--11----14--13----11--9----13--11--
A|--10--9-----14--13----11--9----13--11--
E|------------12--11----9---7----11--9---

Stave 8:

E|-----------------
B|-----------------
G|--11-------------
D|--11--13--9--11--
A|--9---13--9--11--
E|------11--7--9---

Stave 9:

E|------------------------------------------------------------
B|------------------------------------------------------------
G|------------------------------------------------------------
D|----13--13--13--13--12--12--12--12--9--9--9--9--8--8--8--8--
A|----13--13--13--13--12--12--12--12--9--9--9--9--8--8--8--8--
E|----11--11--11--11--10--10--10--10--7--7--7--7--6--6--6--6--

Stave 10:

E|----------------------------------
B|----------------------------------
G|----------------------------------
D|----14--13--9--8--14--13--12--11--
A|----14--13--9--8--14--13--12--11--
E|----12--11--7--6--12--11--10--9---

Stave 11:

E|--17--
B|--16--
G|--15--
D|--14--
A|------
E|------

http://www.guitartabcreator.com
Guitar Tab Creator is intended to store guitar tab created through the tool. It currently does not support in-line text editing. Any text you place in here will be lost. If you need to comment on your tab, please use the "Tab Notes" section located below.