Sound will begin in 5 seconds

anyway

Chords
01234567891011121314151617181920212223
E
B
G
D
A
E
B
0 1 2 3 4 5 6 7 8 9 10 11 12 13 14 15 16 17 18 19 20 21 22 23
Song Science #1: How Pros Use 6 Chords to Write Hit Songs
(/) Slide Up  (\) Slide Down  (h) Hammer On  (p) Pull Off  (b) Bend (r) Release (v) Vibrato

Stave 1:

E|--7--7--9---5--7--7--
B|--9--7--9---5--7--9--
G|--9--8--9---6--8--9--
D|--9--9--11--7--9--9--
A|--7--9--11--7--9--7--
E|-----7--9---5--7-----

Stave 2:

E|--------7--------7--------7--------7-----------7--------7--------7--------7-----------7--------7-----
B|-----9-----9--------9--------9--------9-----9-----9--------9--------9--------9-----9-----9--------9--
G|--9-----------9--------9--------9--------8-----------8--------8--------8--------6-----------6--------
D|-----------------------------------------------------------------------------------------------------
A|-----------------------------------------------------------------------------------------------------
E|-----------------------------------------------------------------------------------------------------

Stave 3:

E|-----7--------7-----------7--------7-----------7--------7-----7--
B|--------9--------9-----9-----9--------9-----9-----9--------9--9--
G|--6--------6--------6-----------6--------8-----------8--------9--
D|-----------------------------------------------------------------
A|-----------------------------------------------------------------
E|-----------------------------------------------------------------

Stave 4:

E|--7--4--5--7--7--4--5--9---
B|--9--4--5--7--9--4--5--10--
G|--9--4--6--8--9--4--6--11--
D|--9--6--7--9--9--6--7--11--
A|--7--6--7--9--7--6--7--9---
E|-----4--5--7-----4--5------

Stave 5:

E|-----7-----7-----9------9---7--5-----7-----7-----7-----9---7--9---7--9---7--9---7--
B|-----9-----7-----9------9---7--5-----7-----9-----7-----9---7--9---7--9---7--9---7--
G|-----9-----8-----9------9---8--6-----8-----9-----8-----9---8--9---8--9---8--9---8--
D|-----9-----9-----11-----11--9--7-----9-----9-----9-----11--9--11--9--11--9--11--9--
A|-----7-----9-----11-----11--9--7-----9-----7-----9-----11--9--11--9--11--9--11--9--
E|-----------7-----9------9---7--5-----7-----------7-----9---7--9---7--9---7--9---7--

Stave 6:

E|--11--12--16--14--11--12-----11--12--16--14--16--17--
B|--12--14--17--16--12--14-----12--14--17--16--17--19--
G|-----------------------------------------------------
D|-----------------------------------------------------
A|-----------------------------------------------------
E|-----------------------------------------------------

Stave 7:

E|---------------------------------------------------------
B|---------------------------------------------------------
G|---------------------------------------------------------
D|--4--6--7-----6--7--9-----7--9--11--------14--13--11--9--
A|--4--6--7-----6--7--9-----7--9--11--------14--13--11--9--
E|--2--4--5-----4--5--7-----5--7--9---------12--11--9---7--

Stave 8:

E|---------------
B|---------------
G|--9------------
D|--9--9--11--7--
A|--7--9--11--7--
E|-----7--9---5--

http://www.guitartabcreator.com
Guitar Tab Creator is intended to store guitar tab created through the tool. It currently does not support in-line text editing. Any text you place in here will be lost. If you need to comment on your tab, please use the "Tab Notes" section located below.