No Service - Tom Anello

Chords

01234567891011121314151617181920212223
E
B
G
D
A
E
B
0 1 2 3 4 5 6 7 8 9 10 11 12 13 14 15 16 17 18 19 20 21 22 23
(/) Slide Up  (\) Slide Down  (h) Hammer On  (p) Pull Off  (b) Bend (r) Release (v) Vibrato

Capo Fret 2

Stave 1:

E|--------------0-----------------------0--0--0--------------0--------------------------0-----------------------0-----------------------0--------------
C|--------0-----------0-----------0--------0--0--------0-----------0--------------0-----------0-----------0-----------0-----------0-----------0--------
G|--------7-----------7-----------4--------4--4--------2-----------2--------------2-----------2-----------0-----------0-----------0-----------0-----4--
D|-----7-----7-----7-----7-----5-----5-----5--5-----3-----3-----3-----3--------0-----0-----0-----0-----3-----3-----3-----3-----3-----3-----3-----3-----
A|--0-----------------------0--------------------0-----------------------0--------------------------5--------------------------------------------------
D|--------------------------------------------------------------------------3-----------------------------------------------5--------------------------

Stave 2:

E|----------------------------------------------------------------------------------------------------------------------------------------------------
C|-----------------------------------------------------------------------------------------------------0----------------------------------------------
G|-------5-----5h7-----------------------------------0h2--0-----------------------------------------4-----0-----2-----0h2-----------------------------
D|--5/7-----7-------7----------------------------------------0-----2--0-------------------------------------------------------------------------------
A|----0--0-----x---------0--0--0--0--x--0--0--0--0------------------------------------------------------------------------------------------------------
D|---------------------------------------------------2----2-----x--------2--2--2--2--x--2--2--2--2--3--3-----x-----3-------3--3--3--3--x--3--3--3--3--

Stave 3:

E|---------------------------------------------------------------------------------------------------------------
C|-------0-----------------0--------------0-----------0--------------0-------------------------------------------
G|--5/7-----0-----------0--------4-----0--------7--------0-----5--------5-----7/9--------------------------------
D|----------------9-----------------------------------------------7--------7-------------------------------------
A|--0----0-----x-----0-----------------------------7--------0-----------------x------0--0--0--0--x--0--0--0--0--0--
D|----------------------------5-----5--------x-------------------------------------------------------------------

Stave 4:

E|-------------------------------------------------------------
C|-----------0--------0h2--0--------0-----------------------0--
G|-----2--------0-----0-------4--------4--------7-----4--------
D|--------0--------0-------------0--------0--------0-----0-----
A|-------------------------------------------------------------
D|--3-----------------x---------5--------------x-----------------

							http://www.guitartabcreator.com
Tab Notes
dduuxuduu (d=down,u=up,x=slap) thumb/finger rythm
Instruments
{"strings":[[[".",".",".",".",0,".",".",".",".",".",".",".",0,0,0,".",".",".",".",0,".",".",".",".",".",".",".",".",0,".",".",".",".",".",".",".",0,".",".",".",".",".",".",".",0,".",".",".","."],[".",".",0,".",".",".",0,".",".",".",0,".",".",0,0,".",".",0,".",".",".",0,".",".",".",".",0,".",".",".",0,".",".",".",0,".",".",".",0,".",".",".",0,".",".",".",0,".","."],[".",".",7,".",".",".",7,".",".",".",4,".",".",4,4,".",".",2,".",".",".",2,".",".",".",".",2,".",".",".",2,".",".",".",0,".",".",".",0,".",".",".",0,".",".",".",0,".",4],[".",7,".",7,".",7,".",7,".",5,".",5,".",5,5,".",3,".",3,".",3,".",3,".",".",0,".",0,".",0,".",0,".",3,".",3,".",3,".",3,".",3,".",3,".",3,".",3,"."],[0,".",".",".",".",".",".",".",0,".",".",".",".",".",".",0,".",".",".",".",".",".",".",0,".",".",".",".",".",".",".",".",5,".",".",".",".",".",".",".",".",".",".",".",".",".",".",".","."],[".",".",".",".",".",".",".",".",".",".",".",".",".",".",".",".",".",".",".",".",".",".",".",".",3,".",".",".",".",".",".",".",".",".",".",".",".",".",".",".",5,".",".",".",".",".",".",".","."]],[[".",".",".",".",".",".",".",".",".",".",".",".",".",".",".",".",".",".",".",".",".",".",".",".",".",".",".",".",".",".",".",".",".",".",".",".",".",".",".",".",".",".",".",".",".",".",".",".",".",".",".",".",".","."],[".",".",".",".",".",".",".",".",".",".",".",".",".",".",".",".",".",".",".",".",".",".",".",".",".",".",".",".",".",".",".",".",".",".",".",".",".",0,".",".",".",".",".",".",".",".",".",".",".",".",".",".",".","."],[".",".",".",5,".",5,"h",7,".",".",".",".",".",".",".",".",".",".",".",0,"h",2,0,".",".",".",".",".",".",".",".",".",".",".",".",".",4,".",0,".",2,".",0,"h",2,".",".",".",".",".",".",".",".","."],[5,"/",7,".",7,".",".",".",7,".",".",".",".",".",".",".",".",".",".",".",".",".",".",0,".",2,0,".",".",".",".",".",".",".",".",".",".",".",".",".",".",".",".",".",".",".",".",".",".",".",".",".",".","."],[".",".",0,0,".","x",".",".",".",0,0,0,0,"x",0,0,0,0,".",".",".",".",".",".",".",".",".",".",".",".",".",".",".",".",".",".",".",".",".",".",".",".",".",".",".",".",".",".",".",".",".",".",".","."],[".",".",".",".",".",".",".",".",".",".",".",".",".",".",".",".",".",".",".",2,".",".",2,".","x",".",".",2,2,2,2,"x",2,2,2,2,3,3,".","x",".",3,".",".",".",3,3,3,3,"x",3,3,3,3]],[[".",".",".",".",".",".",".",".",".",".",".",".",".",".",".",".",".",".",".",".",".",".",".",".",".",".",".",".",".",".",".",".",".",".",".",".",".",".","."],[".",".",".",0,".",".",".",".",".",0,".",".",".",".",0,".",".",".",0,".",".",".",".",0,".",".",".",".",".",".",".",".",".",".",".",".",".",".","."],[5,"/",7,".",0,".",".",".",0,".",".",4,".",0,".",".",7,".",".",0,".",5,".",".",5,".",7,"/",9,".",".",".",".",".",".",".",".",".","."],[".",".",".",".",".",".",9,".",".",".",".",".",".",".",".",".",".",".",".",".",".",".",7,".",".",7,".",".",".",".",".",".",".",".",".",".",".",".","."],[0,".",".",0,".","x",".",0,".",".",".",".",".",".",".",".",".",7,".",".",0,".",".",".",".",".","x",".",".",0,0,0,0,"x",0,0,0,0,0],[".",".",".",".",".",".",".",".",".",".",5,".",5,".",".","x",".",".",".",".",".",".",".",".",".",".",".",".",".",".",".",".",".",".",".",".",".",".","."]],[[".",".",".",".",".",".",".",".",".",".",".",".",".",".",".",".",".",".",".",".","."],[".",".",".",0,".",".",0,"h",2,0,".",".",0,".",".",".",".",".",".",".",0],[".",2,".",".",0,".",0,".",".",".",4,".",".",4,".",".",7,".",4,".","."],[".",".",0,".",".",0,".",".",".",".",".",0,".",".",0,".",".",0,".",0,"."],[".",".",".",".",".",".",".",".",".",".",".",".",".",".",".",".",".",".",".",".","."],[3,".",".",".",".",".","x",".",".",".",5,".",".",".",".","x",".",".",".",".","."]]],"numberofstrings":6,"notes":["E","C","G","D","A","D","B"],"capo":"2","stringnotes":["E4","C3","G3","D3","A2","D2"],"comments":["Stave 1:","Stave 2:","Stave 3:","Stave 4:"],"timing":[[null,null,"W","W","W","W","W","W","W","W","W","W","W","W","W","W","W","W","W","W","W","W","W","W","W","W","W","W","W","W","W","W","W","W","W","W","W","W","W","W","W","W","W","W","W","W","W","W","W","W"],["W",null,"W","W","W","W",null,"W","W","W","W","W","W","W",null,"W","W","W","W","W",null,"W","W","W","W","W","W","W","W","W","W","W",null,"W","W","W","W","W","W","W",null,"W","W",null,"W","W","W","W","W","W",null,"W","W","W","W"],["W",null,"W","W","W","W","W","W","W","W","W","W","W","W","W","W",null,"W","W","W","W","W","W","W","W","W","W","W",null,"W","W",null,"W",null,"W","W","W","W","W","W"],[null,"W","W","W","W","W","W","W",null,"W","W","W","W","W","W","W",null,"W","W","W","W","W"]],"timingvisible":false,"tabcounter":21,"stave":3,"totalstaves":4,"instrument":"6guitar","selectedtuning":"6_standard","version":"13"}

Member for

1 month
Picture
Submitted by m3t4lguitar on Mon, 2021-01-11 11:32