Deck The Halls

01234567891011121314151617181920212223
E
B
G
D
A
E
B
0 1 2 3 4 5 6 7 8 9 10 11 12 13 14 15 16 17 18 19 20 21 22 23
(/) Slide Up  (\) Slide Down  (h) Hammer On  (p) Pull Off  (b) Bend (r) Release (v) Vibrato

Stave 1:

E|-----------------6-----5--------------4-----3---------------10--8--
B|--5-----------------------3-----------------1---------------8---9--
G|-----5--------------5--------3-----------3--2---------------9---9--
D|--------7--------4--------------------2-----3--7--8--9--10---------
A|--0--------0--5--------------------3-------------------------------
E|-----------------------3--------3--------------5--6--7--8---8---8--

Stave 2:

E|--8--6------------3--5-----3--5--6--3--5-----3-----------
B|--8--5--10--8--6--3-----6--3--------------3-----6--5--6--
G|--7--6--7---6--5--3-----5--3--------------3--------3--5--
D|-----5--8---7--7--------3-----------------3--------5--3--
A|--8-----7------5-----------------------------------3-----
E|------------5-----------5--3--------------------------5--

Stave 3:

E|--3-----5--6--3--5-----6--8-----5--7--8--10--12--13--12--10--8--
B|-----3--------------5--------8--5--------10----------10--10--9--
G|-----3--------------5--------7--5--------10----------10--10--9--
D|-----3--------------5--------8--3--------10--------------9------
A|-----------------------------7-----------------------10---------
E|-------------------------------------------------------------8--

Stave 4:

E|----8--6-----------------------10--10--10--10--8--6--5--3-----8--------8-----------5-----8--------
B|----8--5--10--8------8--10--6------------------6--4--3--2-----5--------5-----------5-----8--------
G|----7--6--7---6--10--9--8---7--10--------------7--5--3--3-----5--------5-----------5-----7--------
D|-------5--8---7--10--9--8---7--8------------------------------------------------------------------
A|----8-----7------------------------------------5--5-----3--0-----0--0-----7--6--5-----8-----------
E|--------------5--10--9--8---7------------------------3--------------------------------------------

Stave 5:

E|--10--10--10--10--8--6--5--4--------------------------------------6-----5--------------4-----3--7--8--------------
B|------------------6--4--3--2-----8--6--6-----8--6--5-----------------------3-----------------1--7--8--------------
G|--10--------------7--5--3--3-----------6--------------5--------------5--------3-----------3--2--6--7--------------
D|--8------------------------------------------------------7--------4--------------------2-----3--6--7--------------
A|------------------5--5-----3--0--------------------0--------0--5--------------------3-----------7--8--------------
E|------------------------3-----------------6-----------------------------3--------3--------------------------------

							http://www.guitartabcreator.com
Chords

Instruments
{"strings":[[[".",".",".",".",".",6,".",5,".",".",".",".",4,".",3,".",".",".",".",10,8],[5,".",".",".",".",".",".",".",3,".",".",".",".",".",1,".",".",".",".",8,9],[".",5,".",".",".",".",5,".",".",3,".",".",".",3,2,".",".",".",".",9,9],[".",".",7,".",".",4,".",".",".",".",".",".",2,".",3,7,8,9,10,".","."],[0,".",".",0,5,".",".",".",".",".",".",3,".",".",".",".",".",".",".",".","."],[".",".",".",".",".",".",".",3,".",".",3,".",".",".",".",5,6,7,8,8,8]],[[8,6,".",".",".",3,5,".",3,5,6,3,5,".",3,".",".","."],[8,5,10,8,6,3,".",6,3,".",".",".",".",3,".",6,5,6],[7,6,7,6,5,3,".",5,3,".",".",".",".",3,".",".",3,5],[".",5,8,7,7,".",".",3,".",".",".",".",".",3,".",".",5,3],[8,".",7,".",5,".",".",".",".",".",".",".",".",".",".",".",3,"."],[".",".",".",5,".",".",".",5,3,".",".",".",".",".",".",".",".",5]],[[3,".",5,6,3,5,".",6,8,".",5,7,8,10,12,13,12,10,8],[".",3,".",".",".",".",5,".",".",8,5,".",".",10,".",".",10,10,9],[".",3,".",".",".",".",5,".",".",7,5,".",".",10,".",".",10,10,9],[".",3,".",".",".",".",5,".",".",8,3,".",".",10,".",".",".",9,"."],[".",".",".",".",".",".",".",".",".",7,".",".",".",".",".",".",10,".","."],[".",".",".",".",".",".",".",".",".",".",".",".",".",".",".",".",".",".",8]],[[".","/",8,6,".",".",".",".",".",".",10,10,10,10,8,6,5,3,".",8,".",".",8,".",".",".",5,".",8,".","."],[".","/",8,5,10,8,".",8,10,6,".",".",".",".",6,4,3,2,".",5,".",".",5,".",".",".",5,".",8,".","."],[".","/",7,6,7,6,10,9,8,7,10,".",".",".",7,5,3,3,".",5,".",".",5,".",".",".",5,".",7,".","."],[".",".",".",5,8,7,10,9,8,7,8,".",".",".",".",".",".",".",".",".",".",".",".",".",".",".",".",".",".",".","."],[".","/",8,".",7,".",".",".",".",".",".",".",".",".",5,5,".",3,0,".",0,0,".",7,6,5,".",8,".",".","."],[".",".",".",".",".",5,10,9,8,7,".",".",".",".",".",".",3,".",".",".",".",".",".",".",".",".",".",".",".",".","."]],[[10,10,10,10,8,6,5,4,".",".",".",".",".",".",".",".",".",".",".",".",6,".",5,".",".",".",".",4,".",3,7,8,".",".",".","."],[".",".",".",".",6,4,3,2,".",8,6,6,".",8,6,5,".",".",".",".",".",".",".",3,".",".",".",".",".",1,7,8,".",".",".","."],[10,".",".",".",7,5,3,3,".",".",".",6,".",".",".",".",5,".",".",".",".",5,".",".",3,".",".",".",3,2,6,7,".",".",".","."],[8,".",".",".",".",".",".",".",".",".",".",".",".",".",".",".",".",7,".",".",4,".",".",".",".",".",".",2,".",3,6,7,".",".",".","."],[".",".",".",".",5,5,".",3,0,".",".",".",".",".",".",0,".",".",0,5,".",".",".",".",".",".",3,".",".",".",7,8,".",".",".","."],[".",".",".",".",".",".",3,".",".",".",".",".",6,".",".",".",".",".",".",".",".",".",3,".",".",3,".",".",".",".",".",".",".",".",".","."]]],"numberofstrings":6,"notes":["E","B","G","D","A","E","B"],"capo":0,"stringnotes":["E4","B3","G3","D3","A2","E2"],"comments":["Stave 1:","Stave 2:","Stave 3:","Stave 4:","Stave 5:"],"timing":[["W","W","W","W","W","W","W","W","W","W","W","W","W","W","W","W","W","W","W","W","W"],["W","W","W","W","W","W","W","W","W","W","W","W","W","W","W","W","W","W"],["W","W","W","W","W",null,null,"W","W","W","W","W","W","W","W","W","W","W","W","W"],[null,null,null,null,null,null,null,null,null,"W","W","W","W","W","W","W","W","W","W","W",null,null,null,null,null,null,null,null,null,"W"],[null,null,null,null,null,null,null,null,null,null,null,null,null,null,null,null,null,null,null,null,null,"W",null,null,null,null,null,null,null,null,null,"W",null,null,null,null,"W"]],"timingvisible":false,"tabcounter":36,"stave":4,"totalstaves":5,"instrument":"6guitar","selectedtuning":"6_standard","version":"13"}

Member for

2 months
Picture
Submitted by m3t4lguitar on Sat, 2020-12-12 08:12