Sound will begin in 5 seconds

The Force of Courage (Intro) Galneryus

01234567891011121314151617181920212223
E
B
G
D
A
E
B
0 1 2 3 4 5 6 7 8 9 10 11 12 13 14 15 16 17 18 19 20 21 22 23
(/) Slide Up  (\) Slide Down  (h) Hammer On  (p) Pull Off  (b) Bend (r) Release (v) Vibrato

Stave 1:

E|----------22--22--20------------------19--20--17----------17--19--19-----------------------------22--22--20------------------19--20--17----------17--19--19--17--17--19--15----------------------------------------------------------------------------
B|--19--20--------------17--17--19--20--------------19--20--------------15--19--20-----17--19--20--------------17--17--19--20--------------19--20------------------------------17--17--13--15--17--19--20--19--------------------------------------------
G|-------------------------------------------------------------------------------------------------------------------------------------------------------------------------------------------------------------------------------------------------------
D|-------------------------------------------------------------------------------------------------------------------------------------------------------------------------------------------------------------------------------------------------------
A|-------------------------------------------------------------------------------------------------------------------------------------------------------------------------------------------------------------------------------------------------------
E|-------------------------------------------------------------------------------------------------------------------------------------------------------------------------------------------------------------------------------------------------------

Stave 2:

E|----------17--------------
B|--19--20------20--19--17--
G|--------------------------
D|--------------------------
A|--------------------------
E|--------------------------

http://www.guitartabcreator.com
Guitar Tab Creator is intended to store guitar tab created through the tool. It currently does not support in-line text editing. Any text you place in here will be lost. If you need to comment on your tab, please use the "Tab Notes" section located below.