Sound will begin in 5 seconds

Another Heaven

Chords
01234567891011121314151617181920212223
E
B
G
D
A
E
B
0 1 2 3 4 5 6 7 8 9 10 11 12 13 14 15 16 17 18 19 20 21 22 23
Song Science #1: How Pros Use 6 Chords to Write Hit Songs
(/) Slide Up  (\) Slide Down  (h) Hammer On  (p) Pull Off  (b) Bend (r) Release (v) Vibrato

Stave 1:

E|--------2-----------------2-----------------2-----------------2--------|--
B|--------3-----------------2-----------------3-----------------2--------|--
G|--------0-----------------2-----------------0-----------------2--------|--
D|--------2-----------------0-----------------2-----------------0--------|--
A|-----2--2-----2--------0--0-----2--------2--2-----2--------0--0-----2--|--
E|--0-----------------2-----------------0-----------------2--------------|--

Stave 2:

E|-----------------------------------------------------------------------------------------------|--
B|--12-----------10\8--7\5/10-----------7h10--7h10--7h10--7h10-----------------------------------|--
G|------6--7-------------------6--4-----------------------------6--------6h7p6-------------------|--
D|-----------------------------------------------------------------7-----------------------------|--
A|---------------------------------------------------------------------------------------2/4-----|--
E|------------------------------------------------------------------------------2--3--2-------5--|--

Stave 3:

E|--------------------------------------------------------------------12---------------------------------|-----
B|--12-----------10\8--7\5/10--14------------------------------------------------------------------------|-----
G|------6--7-----------------------11-----11h12--11h12--11h12--11h12------11-----6h7/9-------------------|-----
D|-------------------------------------------------------------------------------------------------------|-----
A|-----------------------------------------------------------------------------------------------2/4-----|-----
E|--------------------------------------------------------------------------------------2--3--2-------5--|-----

Stave 4:

E|------------------------------------------------------------------------------------------------------------------------
B|---------------------3/5--3-------------------------------------------------3-----2h3/5--3h5--5b7b8--8r5p3--5--3--------
G|-------4--2-----2/4------------------4--2-----2/4/6-------------2-----4--2----------------------------------------2-----
D|--2/4---------------------------2/4------------------7-----2/4-------------------------------------------------------4--
A|------------------------------------------------------------------------------------------------------------------------
E|------------------------------------------------------------------------------------------------------------------------

Stave 5:

E|--2--2--2--2--2--2--2--2--2--2--2--2--2--2--2--2--|--
B|--3--3--3--3--3--3--3--3--2--2--2--2--2--2--2--2--|--
G|--0--0--0--0--0--0--0--0--2--2--2--2--2--2--2--2--|--
D|--2--2--2--2--2--2--2--2--0--0--0--0--0--0--0--0--|--
A|--2--2--2--2--2--2--2--2--0--0--0--0--0--0--0--0--|--
E|--0--0--0--0--0--0--0--0--2--2--2--2--2--2--2--2--|--

Stave 6:

E|--4--4--4--4--4--4--4--4--2--2--2--2--2--2--2--2--7--7--7--7--7--7--7--7--6--6--6--6--6--6--6--7--6--|--
B|--4--4--4--4--4--4--4--4--2--2--2--2--2--2--2--2--7--7--7--7--7--7--7--7--6--6--6--6--6--6--6--7--6--|--
G|--4--4--4--4--4--4--4--4--2--2--2--2--2--2--2--2--7--7--7--7--7--7--7--7--6--6--6--6--6--6--6--7--6--|--
D|--2--2--2--2--2--2--2--2--0--0--0--0--0--0--0--0--5--5--5--5--5--5--5--5--4--4--4--4--4--4--4--5--4--|--
A|-----------------------------------------------------------------------------------------------------|--
E|-----------------------------------------------------------------------------------------------------|--

Stave 7:

E|--4--4--4--4--4--4--4--4--2--2--2--2--2--2--2--2--7--7--7--7--7--7--7--7--9-2--|--
B|--4--4--4--4--4--4--4--4--2--2--2--2--2--2--2--2--7--7--7--7--7--7--7--7--9-2--|--
G|--4--4--4--4--4--4--4--4--2--2--2--2--2--2--2--2--7--7--7--7--7--7--7--7--9-2--|--
D|--2--2--2--2--2--2--2--2--0--0--0--0--0--0--0--0--5--5--5--5--5--5--5--5-------|--
A|-------------------------------------------------------------------------------|--
E|-------------------------------------------------------------------------------|--

Stave 8:

E|----------------------------------------------------------------------
B|----------------------------------------------------------------------
G|----------------------------------------------------------------------
D|----------------------------------------------------------------------
A|--4--5-----4-----------------------------------2/4/5\4--4h5/7\5--5/9--
E|--------------5--5/2-----2--3--2--0--2--3/5/7-------------------------

Stave 9:

E|----------------------------------------------2/10---------------2/10--9----------
B|--------------------------10b12-----12r10-----------7h8p7-----------------12--10--
G|--------7--9b11-----9b11-----------------------------------9----------------------
D|--7--9----------------------------------------------------------------------------
A|----------------------------------------------------------------------------------
E|----------------------------------------------------------------------------------

http://www.guitartabcreator.com
Guitar Tab Creator is intended to store guitar tab created through the tool. It currently does not support in-line text editing. Any text you place in here will be lost. If you need to comment on your tab, please use the "Tab Notes" section located below.