(悲しみはオーロラに) Aimer

Chords

01234567891011121314151617181920212223
E
B
G
D
A
E
B
0 1 2 3 4 5 6 7 8 9 10 11 12 13 14 15 16 17 18 19 20 21 22 23
(/) Slide Up  (\) Slide Down  (h) Hammer On  (p) Pull Off  (b) Bend (r) Release (v) Vibrato

Capo Fret 2

Stave 1:

E|-----------3--------|-----------------|-----------3-----5--3--|--3--3--1--0--1--3--------------0--------------0--1--1--|--0--------
B|--1--3--1--1-----1--|-----------------|-----------------------|-----1--------------------1-----------3-----3--------3--|-----3-----
G|-----------0--------|-----7-----9-----|--5--5--0--------------|-----0-----------------0--------------0--------------0--|-----------
D|-----------3--------|--7--7-----------|-----5-----------------|-----0--------------------------------0-----------------|-----------
A|--------------------|-----5--5--------|-----3-----------------|--------------------3-----------------2--------------3--|-----------
D|--------------------|-----------------|-----------------------|-----------------3--------------------------------------|-----------

Stave 2:

E|--3--0--|-----------3--------|------------------|-----3--3-----5--3--|-----3--3--1--0--1--3--|--8--7-----------|--------------------
B|--------|--1--3--1--1-----1--|---------------1--|--1-----------------|-----------------------|-----------------|--------------------
G|--------|-----------2--------|--------12--------|--0-----------------|-----------------------|-----------0--0--|-----0--0-----------
D|--------|-----------3--------|--7--7------------|--2-----------------|-----------------------|--------0--------|-----------3--2--3--
A|--------|--------------------|-----3------------|--0-----------------|--------3--------------|--7--------------|--------------------
D|--------|--------------------|-----3------------|--------------------|-----------------------|--7--------------|--------3-----------

Stave 3:

E|--------|--------------------|---------------------------|--
B|--------|--1--0-----1--3-----|--1-----0--1/3-------------|--
G|--0-----|--------------0-----|----------------7/5--5--5--|--
D|--------|-----------------0--|----------------0-------5--|--
A|--------|--------------------|----------------0-------3--|--
D|--------|--------------------|----------------5----------|--

							http://www.guitartabcreator.com
Tab Notes
みなさん、こんにちは。秀吉です。日本人歌手「エイマー」の悲しいしはオ・ロ・ラにアコースティック・ギターのためのアレンジを差し上げます。気に入ってくれるといいな。 Hello everyone, my name is Hideyoshi, I present to you an arrangement made by me of the Japanese singer "Aimer" 悲 し み は オ ー ロ ラ に, for acoustic guitar. I hope you like it.
genre
Instruments
{"strings":[[[".",".",".",3,"_",".","|",".",".",".",".","_","|",".",".",".",3,"_",5,3,"|",3,3,1,0,1,3,".",".",".","_",0,"_",".","_",".",0,1,1,"|",0,".","_"],[1,3,1,1,"_",1,"|",".",".",".",".","_","|",".",".",".",".","_",".",".","|",".",1,".",".",".",".",".",".",1,"_",".","_",3,"_",3,".",".",3,"|",".",3,"_"],[".",".",".",0,"_",".","|",".",7,".",9,"_","|",5,5,0,".","_",".",".","|",".",0,".",".",".",".",".",0,".","_",".","_",0,"_",".",".",".",0,"|",".",".","_"],[".",".",".",3,"_",".","|",7,7,".",".","_","|",".",5,".",".","_",".",".","|",".",0,".",".",".",".",".",".",".","_",".","_",0,"_",".",".",".",".","|",".",".","_"],[".",".",".",".","_",".","|",".",5,5,".","_","|",".",3,".",".","_",".",".","|",".",".",".",".",".",".",3,".",".","_",".","_",2,"_",".",".",".",3,"|",".",".","_"],[".",".",".",".","_",".","|",".",".",".",".","_","|",".",".",".",".","_",".",".","|",".",".",".",".",".",3,".",".",".","_",".","_",".","_",".",".",".",".","|",".",".","_"]],[[3,0,"|",".",".",".",3,"_",".","|",".",".",".","_",".","|",".",3,3,"_",5,3,"|","_",3,3,1,0,1,3,"|",8,7,".",".",".","|","_",".",".",".",".","."],[".",".","|",1,3,1,1,"_",1,"|",".",".",".","_",1,"|",1,".",".","_",".",".","|","_",".",".",".",".",".",".","|",".",".",".",".",".","|","_",".",".",".",".","."],[".",".","|",".",".",".",2,"_",".","|",".",".",12,"_",".","|",0,".",".","_",".",".","|","_",".",".",".",".",".",".","|",".",".",".",0,0,"|","_",0,0,".",".","."],[".",".","|",".",".",".",3,"_",".","|",7,7,".","_",".","|",2,".",".","_",".",".","|","_",".",".",".",".",".",".","|",".",".",0,".",".","|","_",".",".",3,2,3],[".",".","|",".",".",".",".","_",".","|",".",3,".","_",".","|",0,".",".","_",".",".","|","_",".",3,".",".",".",".","|",7,".",".",".",".","|","_",".",".",".",".","."],[".",".","|",".",".",".",".","_",".","|",".",3,".","_",".","|",".",".",".","_",".",".","|","_",".",".",".",".",".",".","|",7,".",".",".",".","|","_",".",3,".",".","."]],[[".","_","|",".",".","_",".",".",".","|",".","_",".",".",".",".",".",".",".",".",".","|"],[".","_","|",1,0,"_",1,3,".","|",1,"_",0,1,"/",3,".",".",".",".",".","|"],[0,"_","|",".",".","_",".",0,".","|",".","_",".",".",".",".",7,"/",5,5,5,"|"],[".","_","|",".",".","_",".",".",0,"|",".","_",".",".",".",".",0,".",".",".",5,"|"],[".","_","|",".",".","_",".",".",".","|",".","_",".",".",".",".",0,".",".",".",3,"|"],[".","_","|",".",".","_",".",".",".","|",".","_",".",".",".",".",5,".",".",".",".","|"]]],"numberofstrings":6,"notes":["E","B","G","D","A","D","B"],"capo":"2","stringnotes":["E4","B3","G3","D3","A2","D1"],"comments":["Stave 1:","Stave 2:","Stave 3:"],"timing":[["W","W","W","W","W","W","W","W","W","W","W","W","W","W","W","W","W","W","W","W","W","W","W","W","W","W","W","W","W","W",null,"W",null,"W",null,"W","W","W","W","W","W","W","W","W","W"],["W","W",null,"W","W","W","W",null,"W",null,"W","W","W",null,"W",null,"W","W","W",null,"W","W",null,null,"W","W","W","W","W","W",null,"W","W","W","W","W",null,null,"W","W","W","W","W"],["W",null,null,"W","W","W","W","W","W",null,"W",null,"W","W","W","W","W","W","W","W","W"]],"timingvisible":false,"tabcounter":22,"stave":2,"totalstaves":3,"instrument":"6guitar","selectedtuning":"6_standard","version":"13"}

Member for

4 months 2 weeks
About Me
A simple man who can play guitar;)
Submitted by lwortanl on Wed, 2020-07-08 10:01