The Girl from Ipanema

Chords

01234567891011121314151617181920212223
E
B
G
D
A
E
B
0 1 2 3 4 5 6 7 8 9 10 11 12 13 14 15 16 17 18 19 20 21 22 23
(/) Slide Up  (\) Slide Down  (h) Hammer On  (p) Pull Off  (b) Bend (r) Release (v) Vibrato

Stave 1:

E|--------------------------------------------------------------------------------------------------
B|--8--------5--5--------8-----8-----5--5-----------8--------5--5--------8-----8-----5--5-----------
G|--------------------7-----------------------7-----------------------7-----------------------7-----
D|--------------------------------------------------------------------------------------------------
A|--------------------------------------------------------------------------------------------------
E|--------------------------------------------------------------------------------------------------

Stave 2:

E|--------------------------------------------------------------------------------------------------
B|--6-----------------------5-----5-----------------------------------------------------------------
G|-----------7--7-----5-----------------5--5-----3-----5--------------------------------------------
D|--------------------------------------------------------------------------------------------------
A|--------------------------------------------------------------------------------------------------
E|--------------------------------------------------------------------------------------------------

Stave 3:

E|--------------------------------------------------------------------------------------------------
B|--6--------------------------7-----6-----------6--------------------------------------------------
G|-----------------------------------------8-----------8-----6--------8--8--------------------------
D|--------------------------------------------------------------------------------------------------
A|--------------------------------------------------------------------------------------------------
E|--------------------------------------------------------------------------------------------------

Stave 4:

E|-------------------------------------------------------------------------------------------------
B|--9--------------------------10-----9------------9-----------------------------------------------
G|------------------------------------------11-----------11-----9--------11--11--------------------
D|-------------------------------------------------------------------------------------------------
A|-------------------------------------------------------------------------------------------------
E|-------------------------------------------------------------------------------------------------

Stave 5:

E|----------------------------------------------------------------------------------------------------------------------
B|--10--------------------------11-----10------------10---------------------------------------------------10-----11-----
G|--------------------------------------------12------------12-----10--------12--12-------------------------------------
D|----------------------------------------------------------------------------------------------------------------------
A|----------------------------------------------------------------------------------------------------------------------
E|----------------------------------------------------------------------------------------------------------------------

Stave 6:

E|---------------------------------------------------------------------------------------------------
B|--13----------------------------------10-----------11-------------------7-----------8--------------
G|--------------9--10--12--13-----------------------------------7--9--10-----------------------------
D|------10--12-------------------------------------------8--10---------------------------------------
A|---------------------------------------------------------------------------------------------------
E|---------------------------------------------------------------------------------------------------

							http://www.guitartabcreator.com
Instruments
{"strings":[[[".","_","_",".",".","_",".",".","_",".","_",".",".","_",".","_",".","_","_",".",".","_",".",".","_",".","_",".",".","_",".","_"],[8,"_","_",5,5,"_",".",8,"_",8,"_",5,5,"_",".","_",8,"_","_",5,5,"_",".",8,"_",8,"_",5,5,"_",".","_"],[".","_","_",".",".","_",7,".","_",".","_",".",".","_",7,"_",".","_","_",".",".","_",7,".","_",".","_",".",".","_",7,"_"],[".","_","_",".",".","_",".",".","_",".","_",".",".","_",".","_",".","_","_",".",".","_",".",".","_",".","_",".",".","_",".","_"],[".","_","_",".",".","_",".",".","_",".","_",".",".","_",".","_",".","_","_",".",".","_",".",".","_",".","_",".",".","_",".","_"],[".","_","_",".",".","_",".",".","_",".","_",".",".","_",".","_",".","_","_",".",".","_",".",".","_",".","_",".",".","_",".","_"]],[[".","_","_",".",".","_",".","_",".","_",".","_",".",".","_",".","_",".","_","_","_","_","_","_","_","_","_","_","_","_","_","_"],[6,"_","_",".",".","_",".","_",5,"_",5,"_",".",".","_",".","_",".","_","_","_","_","_","_","_","_","_","_","_","_","_","_"],[".","_","_",7,7,"_",5,"_",".","_",".","_",5,5,"_",3,"_",5,"_","_","_","_","_","_","_","_","_","_","_","_","_","_"],[".","_","_",".",".","_",".","_",".","_",".","_",".",".","_",".","_",".","_","_","_","_","_","_","_","_","_","_","_","_","_","_"],[".","_","_",".",".","_",".","_",".","_",".","_",".",".","_",".","_",".","_","_","_","_","_","_","_","_","_","_","_","_","_","_"],[".","_","_",".",".","_",".","_",".","_",".","_",".",".","_",".","_",".","_","_","_","_","_","_","_","_","_","_","_","_","_","_"]],[[".","_","_","_","_","_","_","_","_",".","_",".","_",".","_",".","_",".","_",".","_","_",".",".","_","_","_","_","_","_","_","_"],[6,"_","_","_","_","_","_","_","_",7,"_",6,"_",".","_",6,"_",".","_",".","_","_",".",".","_","_","_","_","_","_","_","_"],[".","_","_","_","_","_","_","_","_",".","_",".","_",8,"_",".","_",8,"_",6,"_","_",8,8,"_","_","_","_","_","_","_","_"],[".","_","_","_","_","_","_","_","_",".","_",".","_",".","_",".","_",".","_",".","_","_",".",".","_","_","_","_","_","_","_","_"],[".","_","_","_","_","_","_","_","_",".","_",".","_",".","_",".","_",".","_",".","_","_",".",".","_","_","_","_","_","_","_","_"],[".","_","_","_","_","_","_","_","_",".","_",".","_",".","_",".","_",".","_",".","_","_",".",".","_","_","_","_","_","_","_","_"]],[[".","_","_","_","_","_","_","_","_",".","_",".","_",".","_",".","_",".","_",".","_","_",".",".","_","_","_","_","_","_"],[9,"_","_","_","_","_","_","_","_",10,"_",9,"_",".","_",9,"_",".","_",".","_","_",".",".","_","_","_","_","_","_"],[".","_","_","_","_","_","_","_","_",".","_",".","_",11,"_",".","_",11,"_",9,"_","_",11,11,"_","_","_","_","_","_"],[".","_","_","_","_","_","_","_","_",".","_",".","_",".","_",".","_",".","_",".","_","_",".",".","_","_","_","_","_","_"],[".","_","_","_","_","_","_","_","_",".","_",".","_",".","_",".","_",".","_",".","_","_",".",".","_","_","_","_","_","_"],[".","_","_","_","_","_","_","_","_",".","_",".","_",".","_",".","_",".","_",".","_","_",".",".","_","_","_","_","_","_"]],[[".","_","_","_","_","_","_","_","_",".","_",".","_",".","_",".","_",".","_",".","_","_",".",".","_","_","_","_","_","_","_",".","_",".","_"],[10,"_","_","_","_","_","_","_","_",11,"_",10,"_",".","_",10,"_",".","_",".","_","_",".",".","_","_","_","_","_","_","_",10,"_",11,"_"],[".","_","_","_","_","_","_","_","_",".","_",".","_",12,"_",".","_",12,"_",10,"_","_",12,12,"_","_","_","_","_","_","_",".","_",".","_"],[".","_","_","_","_","_","_","_","_",".","_",".","_",".","_",".","_",".","_",".","_","_",".",".","_","_","_","_","_","_","_",".","_",".","_"],[".","_","_","_","_","_","_","_","_",".","_",".","_",".","_",".","_",".","_",".","_","_",".",".","_","_","_","_","_","_","_",".","_",".","_"],[".","_","_","_","_","_","_","_","_",".","_",".","_",".","_",".","_",".","_",".","_","_",".",".","_","_","_","_","_","_","_",".","_",".","_"]],[[".",".",".",".",".",".",".","_","_","_",".","_","_","_",".",".",".",".",".",".",".","_","_","_",".","_","_","_","_"],[13,".",".",".",".",".",".","_","_","_",10,"_","_","_",11,".",".",".",".",".",7,"_","_","_",8,"_","_","_","_"],[".",".",".",9,10,12,13,"_","_","_",".","_","_","_",".",".",".",7,9,10,".","_","_","_",".","_","_","_","_"],[".",10,12,".",".",".",".","_","_","_",".","_","_","_",".",8,10,".",".",".",".","_","_","_",".","_","_","_","_"],[".",".",".",".",".",".",".","_","_","_",".","_","_","_",".",".",".",".",".",".",".","_","_","_",".","_","_","_","_"],[".",".",".",".",".",".",".","_","_","_",".","_","_","_",".",".",".",".",".",".",".","_","_","_",".","_","_","_","_"]]],"numberofstrings":6,"notes":["E","B","G","D","A","E","B"],"capo":0,"stringnotes":["E4","B3","G3","D3","A2","E2"],"comments":["Stave 1:","Stave 2:","Stave 3:","Stave 4:","Stave 5:","Stave 6:"],"timing":[["W",null,null,"W","W",null,"W","W",null,"W",null,"W","W",null,"W",null,"W",null,null,"W","W",null,"W","W",null,"W",null,"W","W",null,"W"],["W",null,null,"W","W",null,"W",null,"W",null,"W",null,"W","W",null,"W",null,"W"],["W","W",null,null,null,null,null,null,null,"W","W","W",null,"W",null,"W",null,"W",null,"W",null,null,"W","W"],["W",null,null,null,null,null,null,null,null,"W",null,"W",null,"W",null,"W",null,"W",null,"W",null,"W","W","W"],["W",null,null,null,null,null,null,null,null,"W",null,"W",null,"W",null,"W",null,"W",null,"W",null,null,"W","W","W",null,null,null,null,null,null,"W",null,"W"],["W","W","W","W","W","W","W",null,null,null,"W",null,null,null,"W","W","W","W","W","W","W",null,null,null,"W"]],"timingvisible":false,"tabcounter":29,"stave":5,"totalstaves":6,"instrument":"6guitar","selectedtuning":"6_standard","version":"13"}

Member for

1 week 5 days
Submitted by Luxtonian on Fri, 2020-05-22 11:19