Sound will begin in 5 seconds

Villain

01234567891011121314151617181920212223
E
B
G
D
A
E
B
0 1 2 3 4 5 6 7 8 9 10 11 12 13 14 15 16 17 18 19 20 21 22 23
Song Science #1: How Pros Use 6 Chords to Write Hit Songs
(/) Slide Up  (\) Slide Down  (h) Hammer On  (p) Pull Off  (b) Bend (r) Release (v) Vibrato

Stave 1:

G|-----------------------------------------
D|-----------------------------------------
A|--------4--2--0--0--0--0\12--12--12--12--
E|--0--5-----------------------------------

Stave 2:

G|--------------------------------------------------------------
D|--------------------------------------------------------------
A|-----------------------------------4--4--4--4--2--2--2--2--0--
E|--0--0--0--0--0--5--5--5--5--5--5-----------------------------

Stave 3:

G|------------------------------------------------------------------------------------------------
D|------------------------------------------------------------------------------------------------
A|--4--4--4--4--4--4--4h7--4-------------------------4--4--4--4-----------------------------------
E|----------------------------5--5--5--5--5--5h7--5--------------7--7--7--7--5--5--5--5--5--5--5--

Stave 4:

G|--------------------------------------------------------------------------------------------------
D|--------------------------------------------------------------------------------------------------
A|--4--4--4--4h6--6--6--6--6--6--7--7--7--7h9--9--9--9--9--9--9--4--4--4--4h7--7--7--7--7--7--7--9--
E|--------------------------------------------------------------------------------------------------

Stave 5:

G|---------------11--9---------------9--6---------------------------------------------
D|-----------11---------11-----------------7-----------11------------------11---------
A|--9--9--9-----------------7--7--7------------------------10--9----------------------
E|--------------------------------------------9--9--9-------------9--9--9------10--9--

Stave 6:

G|---------------11--9---------------9--6----------------------------------------------------------
D|-----------11---------11-----------------7-----------11------------------11--9-------------------
A|--9--9--9-----------------7--7--7------------------------10--9-----------------------------------
E|--------------------------------------------9--9--9-------------9--9--9---------9h8--5--5--5--7--

Stave 7:

G|------------------------------------
D|-----7------------------------------
A|--9-----9--7--------11--9--7--------
E|--------------9--8------------9--8--

Stave 8:

G|----------------------------------------------9--8---------------------------------------------------------------------
D|--------------7--7--7--7--10--10--10--10--10--------10--7--------------7--7--7--7--10--10--10--10--10--10--12--10--12--
A|--9--9--9--9-----------------------------------------------9--9--9--9--------------------------------------------------
E|-----------------------------------------------------------------------------------------------------------------------

Stave 9:

G|-----------------------------------------------------
D|-----7-----------------------------------------------
A|--9-----11--9--7-------------------------------------
E|------------------9--8--8--8--8--8--8--8--8--8--8\12/

Stave 10:

G|-------------------------------------------------------------------------------------------
D|-------------------------------------------------------------------------------------------
A|-------------------------------------------------------------------------------------------
E|--2--2--2--4--4--4--4--5--5--5--7--7--7--7--5h7--2--2--2--4--4--4--5--5--5--7--7--7--7--7--

Stave 11:

G|-----------------------------------------------------------------------------
D|-----------------------------------------------------------------------------
A|--------------------------------4-----------------------------------4--------
E|--5--5--5--5--5--7--7--7--7--7-----7--5--5--5--5--5--7--7--7--7--7-----7--5--

http://www.guitartabcreator.com
Guitar Tab Creator is intended to store guitar tab created through the tool. It currently does not support in-line text editing. Any text you place in here will be lost. If you need to comment on your tab, please use the "Tab Notes" section located below.