Sound will begin in 5 seconds

If We Could Sleep

01234567891011121314151617181920212223
E
B
G
D
A
E
B
0 1 2 3 4 5 6 7 8 9 10 11 12 13 14 15 16 17 18 19 20 21 22 23
Song Science #1: How Pros Use 6 Chords to Write Hit Songs
(/) Slide Up  (\) Slide Down  (h) Hammer On  (p) Pull Off  (b) Bend (r) Release (v) Vibrato

Stave 1:

G|-------------------------------------------------9------
D|--------7--6--------7--6--------7--6-------9h11-----11--
A|--7--9--------7--9--------7--9--------7/9---------------
E|--------------------------------------------------------

Stave 2:

G|--------------------------------------------------------6--4--------7--6-----9--------------------------
D|--------7--6--------7--6--------7--6--------7--6--------------------------7-----7-----7--6--------7--6--
A|--7--9--------7--9--------7--9--------7--9--------------------4--5-----------------9--------7--9--------
E|--------------------------------------------------5--7--------------------------------------------------

Stave 3:

G|-----------------------------6--4--------7--6--------9--7--------------6--4--7--6--
D|-----7--6--------7--6--------------------------------------------------------------
A|--9--------7--9--------------------4--5--------4--5--------5--4--4--4--------------
E|-----------------------5--7--------------------------------------------------------

Stave 4:

G|-----2-----4--2-----4-----6--4-----6-----7--6-----7-----9--7------11------13--11------9------11--9--
D|--4-----4--------6-----6--------7-----7--------9-----9--------12------12----------11-----11---------
A|----------------------------------------------------------------------------------------------------
E|----------------------------------------------------------------------------------------------------

Stave 5:

G|-----7-----9--7-----9-----13--11------11------13--11------
D|--9-----9--------9-----9----------12------12----------12--
A|----------------------------------------------------------
E|----------------------------------------------------------

Stave 6:

G|--7--6-----9--------------------------------------9--------------11--------6--4--------6--4--------7--6--
D|--------7-----7-----7--6--------7--6--------9\11-----------9\11------------------------------------------
A|-----------------9--------7--9--------9--7-----------9--7------------------------------------4--5--------
E|---------------------------------------------------------------------5--7--------5--7--------------------

Stave 7:

G|--------7--6-----9--------
D|--------------7-----7-----
A|--4--5-----------------9--
E|--------------------------

Stave 8:

G|--7--6-----9---------------------7--6-----9--------
D|--------7-----7--11--11--11--11--------7-----7-----
A|------------------------------------------------9--
E|---------------------------------------------------

Stave 9:

G|--------------------------------
D|-----------7--------------------
A|--9--7--9-----9--7--------4--5--
E|--------------------5--7--------

http://www.guitartabcreator.com
Guitar Tab Creator is intended to store guitar tab created through the tool. It currently does not support in-line text editing. Any text you place in here will be lost. If you need to comment on your tab, please use the "Tab Notes" section located below.