Sound will begin in 5 seconds

Here To Stay - CG

01234567891011121314151617181920212223
E
B
G
D
A
E
B
0 1 2 3 4 5 6 7 8 9 10 11 12 13 14 15 16 17 18 19 20 21 22 23
Song Science #1: How Pros Use 6 Chords to Write Hit Songs
(/) Slide Up  (\) Slide Down  (h) Hammer On  (p) Pull Off  (b) Bend (r) Release (v) Vibrato

Stave 1:

G|-------------------------------12--10--13--12--10--
D|---------------------------------------------------
A|--5h6--3--------6--3-------------------------------
E|----------3--6--------3--6--4----------------------

Stave 2:

G|-----------------8--7-----------------------5--------------------------------------------
D|-----------------------8-----------------------4--5-----------5--5--5-----------5--5--5--
A|--6--6--6--6--6-----------3--3--3--3--3--3-----------------------------------------------
E|-----------------------------------------------------3--3--3-----------3--3--3-----------

Stave 3:

G|--------------------------------------
D|-----------8--8--8-----------8--8--8--
A|--------------------------------------
E|--6--6--6-----------6--6--6-----------

Stave 4:

G|-----------8--7--------------8--7--------------8--7--------------8--7-----
D|-----------------8-----------------8-----------------8-----------------8--
A|--------------------------------------3--3--3-----------3--3--3-----------
E|--4--4--4-----------4--4--4-----------------------------------------------

Stave 5:

G|-----------8--7--------------8--7--------------8--7--------------8--7--------
D|-----------------8-----------------8-----------------8-----------------8-----
A|--------------------------------------3--3--3-----------3--3--3--------------
E|--4--4--4-----------4--4--4-----------------------------------------------4--

Stave 6:

G|-----------------------------------------------------------3-----------------3--------------------------
D|--------------------------------------------------------------3--5--------------3--5--------------------
A|--6--6--6--6--6--5--6--5--3--3--3--3--3--5--6--5-----------------------------------------------8--5--6--
E|--------------------------------------------------3--3--3-----------3--3--3-----------6--6--6-----------

Stave 7:

G|--------------------
D|-----------8--6--5--
A|--------------------
E|--6--6--6-----------

Stave 8:

G|-------------------------------------5--5--5-----------7--8--7-----------3-----------------3--------
D|----------------------------------------------------------------------------3--5--------------3--5--
A|--6--6--6--6--5h6--5--6--5--3--3--3-----------3--3--3-----------------------------------------------
E|----------------------------------------------------------------3--3--3-----------3--3--3-----------

Stave 9:

G|-----------------------------------------
D|-----------------------------------------
A|-----------8--5--6-----------8--5--6-----
E|--6--6--6-----------6--6--6-----------4--

Stave 10:

G|-----------------------------------------------------------
D|-----------------------------------------------------------
A|-----------------------------------------------------------
E|--4--4--4--4--4--4--4--6--8--8--6h8--8--6h8--8--6h8--8--6--

Stave 11:

G|--------------------------------------------------------------------------------------------------------------------------------
D|--------------------------------------------------------------------------------------------------------------------------------
A|--6--6--6--6--3--3--3--3-----------------------------5--6--6--6--6--6--3--3--3--3-----------------------------------------------
E|--------------------------3--3--3--3--6--6--6--3--6--------------------------------3--3--3--3--6--6--6--6--6--6--6--6--6--6--6--

Stave 12:

G|-----------------------------------------------------------------------------------
D|-----------------------------------------------------------------------------------
A|-----------------------------------------------------------------------------------
E|--3--3--3--3--6--5--3--5--3--3--3--3--6--5--3--5--3--3--3--3--6--5--3--5--3--3--3--

Stave 13:

G|--------------------------------------------------
D|--------------------------------------------------
A|--3--3--3--3--6--5--3--5--3--3--3--3--6--5--3--5--
E|--------------------------------------------------

Stave 14:

G|--------------------------------------------------
D|--------------------------------------------------
A|--------------------------------------------------
E|--3--3--3--3--6--5--3--5--3--3--3--3--6--5--3--5--

Stave 15:

G|--------------------------------------7--8--7-----------------7--8--7-----
D|-----------------------------------------------8-----------------------8--
A|--3--3--3--3--6--5--3--5--6--6--6--6--------------6--6--6--6--------------
E|--------------------------------------------------------------------------

Stave 16:

G|--------------------------------------------------------------------------
D|--------------------------------------------------------------------------
A|--------------------------------------------------------------------------
E|--3--3--3--3--6--5--3--5--3--3--3--3--6--5--3--5--3--3--3--3--6--5--3--5--

Stave 17:

G|--------------------------------------------------------
D|--------------------------------------------------------
A|--3--3--3--3--6--5--3--5--6--6--6--6--6--6--6--6--6--6--
E|--------------------------------------------------------

Stave 18:

G|--------------
D|--------------
A|--17/5--6--5--
E|--------------

Stave 19:

G|-------------------------------------------------------------------------
D|-------------------------------------------------------------------------
A|--------------------6--5-------------------------------------------------
E|--4--4--4--4--4--4--------6--6h8--8--6h8--8--6h8--8--6h8--4--4--4--4--4--

Stave 20:

G|----------------------------------------------
D|----------------------------------------------
A|--6--5----------------------------------------
E|--------6--6--6h8--8--6h8--8--6h8--8--6h8--8--

http://www.guitartabcreator.com
Guitar Tab Creator is intended to store guitar tab created through the tool. It currently does not support in-line text editing. Any text you place in here will be lost. If you need to comment on your tab, please use the "Tab Notes" section located below.