Sound will begin in 5 seconds

The End

01234567891011121314151617181920212223
E
B
G
D
A
E
B
0 1 2 3 4 5 6 7 8 9 10 11 12 13 14 15 16 17 18 19 20 21 22 23
Song Science #1: How Pros Use 6 Chords to Write Hit Songs
(/) Slide Up  (\) Slide Down  (h) Hammer On  (p) Pull Off  (b) Bend (r) Release (v) Vibrato

Stave 1:

G|--5--3--2--3-----------3-----
D|--------------5--3--5-----5--
A|-----------------------------
E|-----------------------------

Stave 2:

G|-----------------------------------------------------------------------
D|-----------------5-----------------6-----------------5-----------------
A|--------5-----------------5-----------------5--------------------------
E|--3--3-----3--3-----3--3-----3--3-----3--3-----3--3-----8--6--5--6--5--

Stave 3:

G|-----------------------------------------------------------------------
D|-----------------5-----------------6-----------------5-----------------
A|--------5-----------------5-----------------5-----------8--6--5--6--5--
E|--3--3-----3--3-----3--3-----3--3-----3--3-----3--3--------------------

Stave 4:

G|-----
D|-----
A|-----
E|--3--

Stave 5:

G|----------------------------------------------------------------------
D|----------------------------------------------------------------------
A|----------------------------------------------------------------------
E|--3--3h4--3--6--3h4--3--3h4--3--6--3h4--3--3h4--3--6--3h4--3--3h4--3--

Stave 6:

G|------------------------------------------------------------------
D|------------------------------------------------------------------
A|-----------6h8--8--8--8--8--6h8--6--6--6--6--6--------------------
E|--8--8--8---------------------------------------6--6--6--7--7--7--

Stave 7:

G|--------------------------------------------------------
D|--------------------------------------------------------
A|--------------------------------------------------------
E|--3--3--4--3--3--6--3--3--4--3--3--6--3--3--4--3--3--6--

Stave 8:

G|-----------------------------------------------------9-----9\11--
D|----------------------7---------------------------------7--------
A|--7h9--7h9--7h9--7h9-----9--7h9--7h9--7h9--7h9--7h9--------------
E|-----------------------------------------------------------------

Stave 9:

G|---------------------------------------------------------------
D|---------------------------------------------------------------
A|--10--10--9--9--8--8--7-----5--6\8--9--9--9--9--9--9--9--9--9--
E|-------------------------8-------------------------------------

Stave 10:

G|--------------------------------------------------------------------------------------
D|--------------------------------------------------------------------------------------
A|--------------------5--------------------5--------------------6--------------------6--
E|--3--3--6--6--3--3-----3--3--6--6--3--3-----3--3--6--6--3--3-----3--3--6--6--3--3-----

Stave 11:

G|---------------------------------------------------------------------------------
D|--------------------3--------------------3--------------------4--10--8--7--8--7--
A|---------------------------------------------------------------------------------
E|--3--3--6--6--3--3-----3--3--6--6--3--3-----3--3--6--6--3--3---------------------

Stave 12:

G|--------------------------------------------------------------------------------------
D|--------------------------------------------------------------------------------------
A|--------------------5--------------------5--------------------6--------------------6--
E|--3--3--6--6--3--3-----3--3--6--6--3--3-----3--3--6--6--3--3-----3--3--6--6--3--3-----

Stave 13:

G|-----------------------------------------------------------------------------------------
D|--------------------3--------------------3--------------------4--4--4--4--4--4--4--4--4--
A|-----------------------------------------------------------------------------------------
E|--3--3--6--6--3--3-----3--3--6--6--3--3-----3--3--6--6--3--3-----------------------------

Stave 14:

G|-----------------------------
D|-----------------------------
A|-----8--6--------------------
E|--8--------6--6--6--7--7--7--

Stave 15:

G|--------------------------------------------------------------------------
D|--------------------------------------------------------------------------
A|--------------------------------------------------------------------------
E|--3--3--4--3--3--6--3--3--4--3--3--6--3--3--4--3--3--6--3--3--4--3--3--6--

Stave 16:

G|----------------------------
D|----------------------------
A|--15--13--12--13--10--8--10/
E|----------------------------

http://www.guitartabcreator.com
Guitar Tab Creator is intended to store guitar tab created through the tool. It currently does not support in-line text editing. Any text you place in here will be lost. If you need to comment on your tab, please use the "Tab Notes" section located below.