Sound will begin in 5 seconds

CG - Messed Up

01234567891011121314151617181920212223
E
B
G
D
A
E
B
0 1 2 3 4 5 6 7 8 9 10 11 12 13 14 15 16 17 18 19 20 21 22 23
Song Science #1: How Pros Use 6 Chords to Write Hit Songs
(/) Slide Up  (\) Slide Down  (h) Hammer On  (p) Pull Off  (b) Bend (r) Release (v) Vibrato

Stave 1:

G|---------------------------------------
D|-----------5-----3--2-----2h3--2h3-----
A|--------5-----5--------3---------------
D|--0--0------------------------------0--

Stave 2:

G|------------------------------------
D|------------------------------------
A|------------------------------------
D|--3--3--5--5--0--0--8--8--8--8--7v--

Stave 3:

G|-----------------------------------------------------------------------------------------------------
D|-----------------------------------------------------------------------------------------------------
A|-----------------------------------------------------------------------------------------------------
D|--8--8--8--8--8--8--7--7--7--7--7--0--0--0--0--0--0--2--2--2--2--2--3--3--3--3--3--7--7--7--7--7--7--

Stave 4:

G|--------------------------------------------------------------------------------
D|--------------14------12-----------10------8-----------10h12--------------------
A|------------------13-------------------10---------------------------------------
D|--12--12--12--------------8--8--8-------------9--9--9---------3--3--3--5--5--5--

Stave 5:

G|-----------------------------------------------------------------------------------------
D|--------------14------12-----------10------8-----------10h12-----------------------------
A|------------------13-------------------10------------------------------------------------
D|--12--12--12--------------8--8--8-------------9--9--9---------7--7--7--7--7--7--7--7--7--

Stave 6:

G|--------------------------------------------------------------------------------------------------
D|-----------------------------------------------------------------------------5--------------------
A|--------------------------2--5--2-----------------------------------------5-----5--7--8--7--5-----
D|--8--8--8--8--8--3--3--3-----------7--8--7--5--7--8-----8--8--8--8--0--0-----------------------8--

Stave 7:

G|--------------------------------------------------------------------------------------------------------
D|--------------------------------------------------------------------------------------------------------
A|--------------------------2--5--2-----------------------------------------------------------------------
D|--8--8--8--8--8--3--3--3-----------7--8--7--5--7--8-----8--8--8--8--8--8--7--7--7--7--7--7--7--7--0--12/

Stave 8:

G|--------------------------------------------------------------------------------------------------
D|--------------------------------------------------------------------------------------------------
A|--------------------------------------------------------------------------------------------------
D|--0--0--1--0--0--1--0--0--1--3--1--0--3--1--1--1--0--0--1--0--0--1--0--0--1--6--5--3--6--5--3--0--

Stave 9:

G|--------------------------------------------
D|--------------------------------------------
A|--------------------------------------------
D|--0--3--0--0--3--0--0--3--5--5--5--7--7--7--

Stave 10:

G|--------------------------------------------------------------------------------------
D|--------------------------------------------------------------------------------------
A|--------------------------------------------------------------------------7-----------
D|--0--0--3--5--5--3--0--0--3--5--5--5--7--7--7--0--0--3--5--5--3--0--0--0-----7--8--7--

Stave 11:

G|--------------------------------------------------------------------------------------
D|--------------------------------------------------------------------------------------
A|-----------7--------------------7--------------------7--------------------7--------9--
D|--0--0--0-----7--8--7--0--0--0-----7--8\10--0--0--0-----7--8--7--0--0--0-----7--8-----

Stave 12:

G|------------------------
D|------------------------
A|--7---------------------
D|-----7--8--7--8--11--7--

Stave 13:

G|--------------------------------------------------------------------------------------------------------------------------------------
D|-----------------------5--------------------------------------------------------------------------------------------------------------
A|--------------------5-----5--7--8--7--5--------------------------------2--5--2--------------------------------------------------------
D|--8--8--8--8--0--0-----------------------8--8--8--8--8--8--8--3--3--3-----------7--8--7--5--7--8--8--8--8--8--8--7--7--7--7--7--7--7--

http://www.guitartabcreator.com
Guitar Tab Creator is intended to store guitar tab created through the tool. It currently does not support in-line text editing. Any text you place in here will be lost. If you need to comment on your tab, please use the "Tab Notes" section located below.