Intro Sandiwara- Xpose band

01234567891011121314151617181920212223
E
B
G
D
A
E
B
0 1 2 3 4 5 6 7 8 9 10 11 12 13 14 15 16 17 18 19 20 21 22 23
(/) Slide Up  (\) Slide Down  (h) Hammer On  (p) Pull Off  (b) Bend (r) Release (v) Vibrato

Stave 1:

E|--------------------------------------
B|--------------------------------------
G|--------------------------------------
D|--5--7--8--7--8--7--5--7--8--7--8--7--
A|--------------------------------------
E|--------------------------------------

Stave 2:

E|--------------------------------------
B|--------------------------------------
G|--------5-----5-----------5-----5-----
D|--7--8-----8-----8--7--8-----8-----8--
A|--------------------------------------
E|--------------------------------------

Stave 3:

E|--------------------------------------
B|--------------------------------------
G|-----5--7--5--7--5-----5--7--5--7--5--
D|--8-----------------8-----------------
A|--------------------------------------
E|--------------------------------------

Stave 4:

E|--------------------------------------
B|--------------------------------------
G|--5--7--8--7--8--7--5--7--8--7--8--7--
D|--------------------------------------
A|--------------------------------------
E|--------------------------------------

Stave 5:

E|--------------------------------------------------------------
B|--------------------------------------------------------------
G|-----5--7--5--7--5--------5-----5-----------------------5h7v--
D|--8-----------------7--8-----8-----8--5--7--8--7--8--7--------
A|--------------------------------------------------------------
E|--------------------------------------------------------------

							http://www.guitartabcreator.com
Chords

Tab Notes
Key Gm transcribed by Luq Skywalker
Instruments
{"strings":[[[".",".",".",".",".",".",".",".",".",".",".","."],[".",".",".",".",".",".",".",".",".",".",".","."],[".",".",".",".",".",".",".",".",".",".",".","."],[5,7,8,7,8,7,5,7,8,7,8,7],[".",".",".",".",".",".",".",".",".",".",".","."],[".",".",".",".",".",".",".",".",".",".",".","."]],[[".",".",".",".",".",".",".",".",".",".",".","."],[".",".",".",".",".",".",".",".",".",".",".","."],[".",".",5,".",5,".",".",".",5,".",5,"."],[7,8,".",8,".",8,7,8,".",8,".",8],[".",".",".",".",".",".",".",".",".",".",".","."],[".",".",".",".",".",".",".",".",".",".",".","."]],[[".",".",".",".",".",".",".",".",".",".",".","."],[".",".",".",".",".",".",".",".",".",".",".","."],[".",5,7,5,7,5,".",5,7,5,7,5],[8,".",".",".",".",".",8,".",".",".",".","."],[".",".",".",".",".",".",".",".",".",".",".","."],[".",".",".",".",".",".",".",".",".",".",".","."]],[[".",".",".",".",".",".",".",".",".",".",".","."],[".",".",".",".",".",".",".",".",".",".",".","."],[5,7,8,7,8,7,5,7,8,7,8,7],[".",".",".",".",".",".",".",".",".",".",".","."],[".",".",".",".",".",".",".",".",".",".",".","."],[".",".",".",".",".",".",".",".",".",".",".","."]],[[".",".",".",".",".",".",".",".",".",".",".",".",".",".",".",".",".",".",".",".",".","."],[".",".",".",".",".",".",".",".",".",".",".",".",".",".",".",".",".",".",".",".",".","."],[".",5,7,5,7,5,".",".",5,".",5,".",".",".",".",".",".",".",5,"h",7,"v"],[8,".",".",".",".",".",7,8,".",8,".",8,5,7,8,7,8,7,".",".",".","."],[".",".",".",".",".",".",".",".",".",".",".",".",".",".",".",".",".",".",".",".",".","."],[".",".",".",".",".",".",".",".",".",".",".",".",".",".",".",".",".",".",".",".",".","."]]],"numberofstrings":6,"notes":["E","B","G","D","A","E","B"],"capo":0,"stringnotes":["E4","B3","G3","D3","A2","E2"],"comments":["Stave 1:","Stave 2:","Stave 3:","Stave 4:","Stave 5:"],"timing":[["W","W","W","W","W","W","W","W","W","W","W","W","W","W","W","W","W","W","W","W","W","W","W","W","W"],["W","W","W","W","W","W","W","W","W","W","W","W","W"],["W","W","W","W","W","W","W","W","W","W","W","W"],["W","W","W","W","W","W","W","W","W","W","W","W"],["W","W","W","W","W","W","W","W","W","W","W","W","W","W","W","W","W","W","W","W","W"]],"timingvisible":false,"tabcounter":22,"stave":4,"totalstaves":5,"instrument":"6guitar","selectedtuning":"6_standard","version":"13"}

Member for

9 months
Submitted by luq_skywalker on Mon, 2021-01-11 02:00