Sound will begin in 5 seconds

weird in america tab

Chords
01234567891011121314151617181920212223
E
B
G
D
A
E
B
0 1 2 3 4 5 6 7 8 9 10 11 12 13 14 15 16 17 18 19 20 21 22 23
Song Science #1: How Pros Use 6 Chords to Write Hit Songs
(/) Slide Up  (\) Slide Down  (h) Hammer On  (p) Pull Off  (b) Bend (r) Release (v) Vibrato

Stave 1:

E|---------------------------------------------------
B|---------------------------------------------------
G|------------8-----7--6--4-----4--6--8--------6--4--
D|--6--9--11-----5-----------4--------------6--------
A|---------------------------------------7-----------
E|---------------------------------------------------

Stave 2:

E|--11--10--7--0--
B|--12--12--7--0--
G|--13--12--8--1--
D|--13--12--9--2--
A|--11--10--9--2--
E|--11--10--7--0--

Stave 3:

E|-----------------------------------------
B|--------7--------9--------4------11------
G|-----8--------9--------4-------------11--
D|-----------------------------------------
A|-----------------------------------------
E|--7--------9--------4--------11----------

Stave 4:

E|------------------
B|------------------
G|--13\11-8\11-6/8--
D|--11-9-\6-9-\4-6--
A|------------------
E|------------------

http://www.guitartabcreator.com
Guitar Tab Creator is intended to store guitar tab created through the tool. It currently does not support in-line text editing. Any text you place in here will be lost. If you need to comment on your tab, please use the "Tab Notes" section located below.