Sound will begin in 5 seconds

toes rough random guitar parts

Chords
01234567891011121314151617181920212223
E
B
G
D
A
E
B
0 1 2 3 4 5 6 7 8 9 10 11 12 13 14 15 16 17 18 19 20 21 22 23
Song Science #1: How Pros Use 6 Chords to Write Hit Songs
(/) Slide Up  (\) Slide Down  (h) Hammer On  (p) Pull Off  (b) Bend (r) Release (v) Vibrato

Stave 1:

E|--2--------2--------7--------7--------7--------7-----9--
B|-----3--------3--------7--------7--------7--------7-----
G|--------4--------4--------7--------7--------7-----------
D|--------------------------------------------------------
A|--------------------------------------------------------
E|--------------------------------------------------------

Stave 2:

E|------------------------------------------------
B|------------------------------------------------
G|----------4--------4-------------7--------9-----
D|-------4-----4--------4-------7-----7--------9--
A|--0h2-----------2--------0h5-----------7--------
E|------------------------------------------------

Stave 3:

E|---------------------------------------------------------------------------
B|----------------3b3-------------5b5-------------7b7-----------10/12\10--0--
G|----------4----------4---------------7---------------9---------------------
D|-------4-----4---------------7---------------9-----------------------------
A|--0h2-------------------0h5-------------0h7--------------------------------
E|---------------------------------------------------------------------------

Stave 4:

E|---------------
B|---------------
G|---------------
D|--12--7--3--5--
A|--12--7--3--5--
E|--10--5--1--3--

Stave 5:

E|--------------------7---------7---------7---------7----------------
B|-----7-----------------10--------10--------10--------10-----10/14--
G|--------7--------7---------7---------7---------7---------7---------
D|--7--------7--9----------------------------------------------------
A|-------------------------------------------------------------------
E|-------------------------------------------------------------------

http://www.guitartabcreator.com
Guitar Tab Creator is intended to store guitar tab created through the tool. It currently does not support in-line text editing. Any text you place in here will be lost. If you need to comment on your tab, please use the "Tab Notes" section located below.