Sound will begin in 5 seconds

new chord sequence

Chords
01234567891011121314151617181920212223
E
B
G
D
A
E
B
0 1 2 3 4 5 6 7 8 9 10 11 12 13 14 15 16 17 18 19 20 21 22 23
Song Science #1: How Pros Use 6 Chords to Write Hit Songs
(/) Slide Up  (\) Slide Down  (h) Hammer On  (p) Pull Off  (b) Bend (r) Release (v) Vibrato

Stave 1:

E|--------------------------
B|--0--0--0--0--0--0--0--0--
G|--0--0--0--2--0--0--0--0--
D|--0--0--2--5--5--4--4--2--
A|--5--5--3-----------0--3--
E|--7--6--0--4--4--2--2--0--

Stave 2:

E|--------0-------------------0--------------0-----0--
B|-----0-----0-------------0-----0-----------0-----0--
G|-----0--------0----------0--------0--------0-----0--
D|--2--2-----------2--2/5--5-----------5-----2-----2--
A|--2--2--------------2-5--5-----------------3-----3--
E|----------------------------------------0--0--0--0--

Stave 3:

E|--------0-----------------------------------------------
B|-----0-----0-------------0-----------0------------------
G|-----0--------0----------0--0--------0---0--0---12--12--
D|--2--2-----------2--2/5--5-------10--10-----12--10--9---
A|--2--2--------------2-5--5-----5/10--10-----12--12--12--
E|--------------------------------------------12--12--12--

Stave 4:

E|------------------------------
B|--8--7--12--0-----0--0--0--0--
G|--0--0--0---0-----0--0--0--0--
D|--9--7--12--2-----7--4--5--2--
A|--7--5--10--3-----9--5--7--3--
E|------------------------------

Stave 5:

E|--7--7--7-----7--9/11--7-----
B|--0--0--0-----0--0-0---0-----
G|--0--0--0-----0--0-0---0-----
D|--5--5--5-----5--0-0---5-----
A|-----7--7--------5-7---7-----
E|--------0--------------0-----

Stave 6:

E|--------------
B|--0--0--0--0--
G|--0--0--0--0--
D|--0--7--9--2--
A|--5--5--7--3--
E|--7--------0--

Stave 7:

E|-----------------------
B|--0--0--0--0---13--12--
G|--0--0--0--12--12--12--
D|--0--7--5--10--10--10--
A|--0--0--0--------------
E|--7--7--7--12--12--12--

http://www.guitartabcreator.com
Guitar Tab Creator is intended to store guitar tab created through the tool. It currently does not support in-line text editing. Any text you place in here will be lost. If you need to comment on your tab, please use the "Tab Notes" section located below.