Sound will begin in 5 seconds

i'd rather not sleep - pix

Chords
01234567891011121314151617181920212223
E
B
G
D
A
E
B
0 1 2 3 4 5 6 7 8 9 10 11 12 13 14 15 16 17 18 19 20 21 22 23
Song Science #1: How Pros Use 6 Chords to Write Hit Songs
(/) Slide Up  (\) Slide Down  (h) Hammer On  (p) Pull Off  (b) Bend (r) Release (v) Vibrato

Stave 1:

E|-----------------------------4--8--6--4--2------------------------------------------------------
B|-----------------------------4-----------2------------------------------------------------------
G|-----5--4--3-----5--4--3-----5-----------3------------------------------------------------------
D|--5-----------5--------------6-----------4-----------8-----------10-----------6-----------6-----
A|------------------------------------------------------------------------------------------------
E|-----------------------------------------------6--6-----6--8--8------8--4--4-----4--4--4-----4--

Stave 2:

E|---------------------------------------------------------------------------------------------
B|---------------------------------------------------------------------------------------------
G|---------------------9--12--9--8--8----------------------9--12--9--8--8----------------------
D|-------------------------------------10--12--10--------------------------10--13--12--11--10--
A|-------------------------------------------------12--10--------------------------------------
E|--11--11--11--11-----------------------------------------------------------------------------

Stave 3:

E|--8--6--8--6--8--6--8--6--8--6--8--6-----------6--6-----6--6-----------------
B|--8--6--8--6--8--6--8--6--8--6--8--6-----6--8--------8--------8--6-----------
G|--------------------------------------8-----------------------------8--5--8--
D|-----------------------------------------------------------------------------
A|-----------------------------------------------------------------------------
E|-----------------------------------------------------------------------------

Stave 4:

E|-----------------------------------6-----
B|-----6--8--8--8-----6--8--8--6--8--------
G|--8--------------8--------------------8--
D|-----------------------------------------
A|-----------------------------------------
E|-----------------------------------------

http://www.guitartabcreator.com
Guitar Tab Creator is intended to store guitar tab created through the tool. It currently does not support in-line text editing. Any text you place in here will be lost. If you need to comment on your tab, please use the "Tab Notes" section located below.