Sound will begin in 5 seconds

a big cloud to float upon - bridge

01234567891011121314151617181920212223
E
B
G
D
A
E
B
0 1 2 3 4 5 6 7 8 9 10 11 12 13 14 15 16 17 18 19 20 21 22 23
Song Science #1: How Pros Use 6 Chords to Write Hit Songs
(/) Slide Up  (\) Slide Down  (h) Hammer On  (p) Pull Off  (b) Bend (r) Release (v) Vibrato

Stave 1:

E|------------------------------------------------------
B|------------------------------------------------------
G|--------------------------------------15--15--15--16--
D|--13--13--13--13--13--13--13--13--13------------------
A|------------------------------------------------------
E|------------------------------------------------------

Stave 2:

E|--------------------------------------------------------------------
B|--------------------------------------------------------------------
G|--------------------------------------------------------------------
D|--13--13--13--11--11--11--9--9--9--6--6--6--------9--6--------9--6--
A|--------------------------------------------9--9--------9--9--------
E|--------------------------------------------------------------------

Stave 3:

E|----------------------------------------------------------------------------
B|----------------------------------------------------------------------------
G|--------8--------8--------11--------10--------4--------3--------1--------1--
D|-----8--------6--------8---------8---------4--------4--------1--------1-----
A|----------------------------------------------------------------------------
E|--7--------7--------9---------9---------2--------2--------0--------0--------

Stave 4:

E|--------------------------------------------------
B|--------------------------------------------------
G|----------13----------13----------13----------13--
D|------13----------13----------13----------13------
A|--------------------------------------------------
E|--12----------12----------12----------12----------

http://www.guitartabcreator.com
Guitar Tab Creator is intended to store guitar tab created through the tool. It currently does not support in-line text editing. Any text you place in here will be lost. If you need to comment on your tab, please use the "Tab Notes" section located below.