Sound will begin in 5 seconds

Whiskey in the Jar Lead Intro

01234567891011121314151617181920212223
E
B
G
D
A
E
B
0 1 2 3 4 5 6 7 8 9 10 11 12 13 14 15 16 17 18 19 20 21 22 23
Song Science #1: How Pros Use 6 Chords to Write Hit Songs
(/) Slide Up  (\) Slide Down  (h) Hammer On  (p) Pull Off  (b) Bend (r) Release (v) Vibrato

Stave 1:

E|--8-----8--8p7p5--7-----7--7p5------------------------------------------------------------------------
B|--------------------------------8b10-----8p5--------------------------------5h8p5---------------------
G|----------------------------------------------7p5---------------------5--7---------7/9v--/7--6--5--4--
D|---------------------------------------------------7p6p5v-----7p5--7----------------------------------
A|------------------------------------------------------------------------------------------------------
E|------------------------------------------------------------------------------------------------------

Stave 2:

E|--------------------------------------------------------------------------------------------------------
B|------------------------------------------------------------8-----7--------8----------------8-----7-----
G|-------------------------------------------------7--7--7/9-----9-----7--9--------7--7--7/9-----9-----7--
D|--7--6--5--4--------------------------------------------------------------------------------------------
A|--------------7--6--5--4--------------------------------------------------------------------------------
E|--------------------------8--7--6--5--5v--\-------------------------------------------------------------

Stave 3:

E|-----------------------------------------------------------------------------------
B|-----8----------------------8-----7--------8------------------------3--------------
G|--9--------------7--7--7/9-----9-----7--9--------------0--0--0h2h4-----0--2p0/4p0--
D|-----------------------------------------------------------------------------------
A|-----------------------------------------------------------------------------------
E|-----------------------------------------------------------------------------------

http://www.guitartabcreator.com
Guitar Tab Creator is intended to store guitar tab created through the tool. It currently does not support in-line text editing. Any text you place in here will be lost. If you need to comment on your tab, please use the "Tab Notes" section located below.