Song 3

01234567891011121314151617181920212223
E
B
G
D
A
E
B
0 1 2 3 4 5 6 7 8 9 10 11 12 13 14 15 16 17 18 19 20 21 22 23
(/) Slide Up  (\) Slide Down  (h) Hammer On  (p) Pull Off  (b) Bend (r) Release (v) Vibrato

Stave 1:

E|----------------------
B|----------------------
G|----------------------
D|-----10-----10/12-10--
A|--7------7--7--9-\7---
E|----------------------

Stave 2:

E|------------------------
B|------------------------
G|------------------------
D|------10------10/12-10--
A|--12------12--12-14\12--
E|------------------------

							http://www.guitartabcreator.com
Chords

Tab Notes
C E A F
Instruments
{"strings":[[[".",".",".",".",".",".",".","."],[".",".",".",".",".",".",".","."],[".",".",".",".",".",".",".","."],[".",10,".",10,"/",12,".",10],[7,".",7,7,".",9,"\\",7],[".",".",".",".",".",".",".","."]],[[".",".",".",".",".",".",".","."],[".",".",".",".",".",".",".","."],[".",".",".",".",".",".",".","."],[".",10,".",10,"/",12,".",10],[12,".",12,12,".",14,"\\",12],[".",".",".",".",".",".",".","."]]],"numberofstrings":6,"notes":["E","B","G","D","A","E","B"],"capo":0,"stringnotes":["E4","B3","G3","D3","A2","E2"],"comments":["Stave 1:","Stave 2:"],"timing":[["W","W","W","W",null,"W",null,"W"],["W","W","W","W",null,"W","W","W"]],"timingvisible":false,"tabcounter":7,"stave":1,"totalstaves":2,"instrument":"6guitar","selectedtuning":"6_standard","version":"13"}

Member for

9 months 3 weeks
Submitted by lukepsomas8 on Mon, 2021-01-11 20:56