Sound will begin in 5 seconds

Unnamed

Chords
01234567891011121314151617181920212223
E
B
G
D
A
E
B
0 1 2 3 4 5 6 7 8 9 10 11 12 13 14 15 16 17 18 19 20 21 22 23
Song Science #1: How Pros Use 6 Chords to Write Hit Songs
(/) Slide Up  (\) Slide Down  (h) Hammer On  (p) Pull Off  (b) Bend (r) Release (v) Vibrato

Stave 1:

E|--------------------------------
B|--------------------------------
G|--------------------------------
D|--4--4--4--4--0--9--9--9--9--0--
A|--4--4--4--4--0--9--9--9--9--0--
E|--------------------------------

Stave 2:

E|-----------------------------
B|-----------------------------
G|-----------------------------
D|--4--4--4--4--0--9--9--9--9--
A|--4--4--4--4--0--9--9--9--9--
E|-----------------------------

Stave 3:

E|--------------------------------
B|--------------------------------
G|--------------------------------
D|--4--4--4--4--0--9--9--9--9--0--
A|--4--4--4--4--0--9--9--9--9--0--
E|--2--2--2--2--0--7--7--7--7--0--

Stave 4:

E|--------------------------------------------------
B|--------------------------------------------------
G|--9--9--9--9--7--7--7--7--5--5--5--5--6--6--6--6--
D|--9--9--9--9--7--7--7--7--5--5--5--5--6--6--6--6--
A|--7--7--7--7--5--5--5--5--3--3--3--3--4--4--4--4--
E|--------------------------------------------------

Stave 5:

E|--------------------------------------
B|--------------------------------------
G|--9--9--9--9--7--7--7--7--5--5--5--2--
D|--9--9--9--9--7--7--7--7--5--5--5--2--
A|--7--7--7--7--5--5--5--5--3--3--3--0--
E|--------------------------------------

Stave 6:

E|----------------------------------------------------------------------
B|----------------------------------------------------------------------
G|--16--16--16--16--16--------------------------------------------------
D|----------------------14--14--14--14--17--17--17--17------------------
A|------------------------------------------------------15--15--15--15--
E|----------------------------------------------------------------------

Stave 7:

E|--4--4--4--4--0--4--4--4--4--0--4--4--4--4--0--4--4--4--4--2--
B|--4--4--4--4--0--4--4--4--4--0--4--4--4--4--0--4--4--4--4--2--
G|--------------------------------------------------------------
D|--------------------------------------------------------------
A|--------------------------------------------------------------
E|--------------------------------------------------------------

http://www.guitartabcreator.com
Guitar Tab Creator is intended to store guitar tab created through the tool. It currently does not support in-line text editing. Any text you place in here will be lost. If you need to comment on your tab, please use the "Tab Notes" section located below.