Sound will begin in 5 seconds

Spooked

Chords
01234567891011121314151617181920212223
E
B
G
D
A
E
B
0 1 2 3 4 5 6 7 8 9 10 11 12 13 14 15 16 17 18 19 20 21 22 23
Song Science #1: How Pros Use 6 Chords to Write Hit Songs
(/) Slide Up  (\) Slide Down  (h) Hammer On  (p) Pull Off  (b) Bend (r) Release (v) Vibrato

Stave 1:

E|-----------------------------------------
B|-----------------------------------------
G|-----------7-7-7-x-x---------------------
D|-9-9-9-x-x-7-7-7-x-x-7-7-7-x-x-5-5-5-x-x-
A|-9-9-9-x-x-5-5-5-x-x-7-7-7-x-x-5-5-5-x-x-
E|-7-7-7-x-x-----------5-5-5-x-x-3-3-3-x-x-

Stave 2:

E|-------------------------------------------------------------------------
B|-------------------------------------------------------------------------
G|-------------------------------------------------------------------------
D|-------------------------------------------------------------------------
A|-15-15-15-15-15-15-15-15-17-17-17-17-17-17-17-17-15-15-15-15-15-15-15-15-
E|-15-15-15-15-15-15-15-15-17-17-17-17-17-17-17-17-15-15-15-15-15-15-15-15-

Stave 3:

E|-----------------
B|-----------------
G|-----------------
D|-----------------
A|-7-7-7-7-7-7-7-7-
E|-7-7-7-7-7-7-7-7-

Stave 4:

E|---------------------------------
B|---------------------------------
G|---------------------------------
D|---------------------------------
A|---------------------------------
E|-0-0-0-0-7-7-7-7-8-8-8-8-7-7-7-7-

Stave 5:

E|---------------------
B|---------------------
G|-----7---------------
D|-9-0-7-0-7-0-5-4-3-2-
A|-9-0-5-0-7-0-5-4-3-2-
E|-7-0---0-5-0-3-2-1-0-

http://www.guitartabcreator.com
Guitar Tab Creator is intended to store guitar tab created through the tool. It currently does not support in-line text editing. Any text you place in here will be lost. If you need to comment on your tab, please use the "Tab Notes" section located below.