Sound will begin in 5 seconds

cherlovecanbuildabridge

01234567891011121314151617181920212223
E
B
G
D
A
E
B
0 1 2 3 4 5 6 7 8 9 10 11 12 13 14 15 16 17 18 19 20 21 22 23
Song Science #1: How Pros Use 6 Chords to Write Hit Songs
(/) Slide Up  (\) Slide Down  (h) Hammer On  (p) Pull Off  (b) Bend (r) Release (v) Vibrato

Stave 1:

E|-----------7-----9--9b11--9b11v--9--11--12b14--12--11--9v--
B|-----7--9-----9--------------------------------------------
G|-----------------------------------------------------------
D|-----------------------------------------------------------
A|-----------------------------------------------------------
E|-----------------------------------------------------------

Stave 2:

E|--14--16--19--21--21b23--21b23r21p19--21v--22b21--19------19v--
B|------------------------------------------------------21-------
G|---------------------------------------------------------------
D|---------------------------------------------------------------
A|---------------------------------------------------------------
E|---------------------------------------------------------------

Stave 3:

E|----------------------------------------------0----------------------
B|------------------16--17b19v--17--16--17--16-------------------------
G|----------16--18-----------------------------------------------------
D|--16--18-------------------------------------------------------------
A|-------------------------------------------------14/16--14------14v--
E|------------------------------------------------------------16-------

Stave 4:

E|------------------------7--9b11r9-----21b23--21--19------19--19v--
B|----------------4/7--9-------------7-----------------21-----------
G|--6/8-----6--8----------------------------------------------------
D|-------9----------------------------------------------------------
A|------------------------------------------------------------------
E|------------------------------------------------------------------

http://www.guitartabcreator.com
Guitar Tab Creator is intended to store guitar tab created through the tool. It currently does not support in-line text editing. Any text you place in here will be lost. If you need to comment on your tab, please use the "Tab Notes" section located below.