Sound will begin in 5 seconds

bell bottom blues live

Chords
01234567891011121314151617181920212223
E
B
G
D
A
E
B
0 1 2 3 4 5 6 7 8 9 10 11 12 13 14 15 16 17 18 19 20 21 22 23
Song Science #1: How Pros Use 6 Chords to Write Hit Songs
(/) Slide Up  (\) Slide Down  (h) Hammer On  (p) Pull Off  (b) Bend (r) Release (v) Vibrato

Stave 1:

E|---------------------------------------------------------------------------------------
B|------12--13--15--15b17v--13h15v--15/17--13v-------------------------------------------
G|--12------------------------------------------12/14--12---------------------------12v--
D|---------------------------------------------------------14\12p10------10--12/14-------
A|-------------------------------------------------------------------12------------------
E|---------------------------------------------------------------------------------------

Stave 2:

E|------------------------------------------------------
B|-----------------12--13--15--15--13h15p13\12--13--13--
G|---------12--14---------------------------------------
D|--12/14-----------------------------------------------
A|------------------------------------------------------
E|------------------------------------------------------

Stave 3:

E|-----------------15--17--15--17\
B|------13--15/17-----------------
G|--14----------------------------
D|--------------------------------
A|--------------------------------
E|--------------------------------

Stave 4:

E|--
B|--
G|--
D|--
A|--
E|--

Stave 5:

E|------------------------------------------
B|------------------------------------------
G|------------------------------------------
D|--10/12--10-------------------------------
A|-------------10/12--10--3/5--3--5-----3v--
E|-----------------------------------5------

Stave 6:

E|-----------------------------8--10--10b12--10b12--10b12--10b12r10--8v--
B|-------5-------8--10--8--10--------------------------------------------
G|-------5--7/9----------------------------------------------------------
D|--5/7------------------------------------------------------------------
A|-----------------------------------------------------------------------
E|-----------------------------------------------------------------------

Stave 7:

E|--8--7--8--8/10--8-------
B|--------------------10v--
G|-------------------------
D|-------------------------
A|-------------------------
E|-------------------------

Stave 8:

E|------------------------------------------------------------------------------------
B|------------------------------------------------------------------------------------
G|--12h14p12--------------------------------12------12--14----------------------------
D|------------14/12--10------10--12--12/14------14----------12--10------10--10h12p10--
A|-----------------------12-----------------------------------------12----------------
E|------------------------------------------------------------------------------------

http://www.guitartabcreator.com
Guitar Tab Creator is intended to store guitar tab created through the tool. It currently does not support in-line text editing. Any text you place in here will be lost. If you need to comment on your tab, please use the "Tab Notes" section located below.