Sound will begin in 5 seconds

stickerbrush symphony

01234567891011121314151617181920212223
E
B
G
D
A
E
B
0 1 2 3 4 5 6 7 8 9 10 11 12 13 14 15 16 17 18 19 20 21 22 23
Song Science #1: How Pros Use 6 Chords to Write Hit Songs
(/) Slide Up  (\) Slide Down  (h) Hammer On  (p) Pull Off  (b) Bend (r) Release (v) Vibrato

Stave 1:

E|------------------|---------------------------|-
B|-------------10---|----------12h13-12------10-|-
G|------12--12----9-|------12-----------12-9----|-
D|-9-10-------------|-9-10----------------------|-
A|------------------|---------------------------|-
E|------------------|---------------------------|-

Stave 2:

E|-----------------------------------------------------------------------|-
B|-------8-8--8--------------------10-10-----8-8-8-10-12-12-13-12-8---10-|-
G|-7h9p7--------10-9-7-9-7---------------9-7------------------------9----|-
D|-------------------------10-9-10---------------------------------------|-
A|-----------------------------------------------------------------------|-
E|-----------------------------------------------------------------------|-

Stave 3:

E|-------------------------------------------------|-
B|--------8------------10--------------------------|-
G|----7-9------------9---------------9-10-9-7----9-|-
D|-10--------10-9-10-------10-7-9-10----------10---|-
A|-------------------------------------------------|-
E|-------------------------------------------------|-

Stave 4:

E|---------------------------------------------------------------------------
B|-------------------8-----------------10-10-----8-8-8-10-12-12-13-12-8---10-
G|-7-9-7----7--9-7-9---9-7-9-7---------------9-7------------------------9----
D|-------10--------------------10-9-10---------------------------------------
A|---------------------------------------------------------------------------
E|---------------------------------------------------------------------------

Stave 5:

E|-----------------------------------------------|-
B|--------8-----------10-------------------------|-
G|----7-9-----------9--------------9-10-9-7----9-|-
D|-10-------10-9-10------10-7-9-10----------10---|-
A|-----------------------------------------------|-
E|-----------------------------------------------|-

Stave 6:

E|----------15-15-15-------------------------17-17-------15-15-15-17-19-19-20-19-15----17-|-
B|-15h17p15----------18-17-15-17-15----------------17-15----------------------------17----|-
G|----------------------------------17-16-17----------------------------------------------|-
D|----------------------------------------------------------------------------------------|-
A|----------------------------------------------------------------------------------------|-
E|----------------------------------------------------------------------------------------|-

Stave 7:

E|----------15--------------17--------------------------------|-
B|----15-17--------------17-----------------17-18-17-15----17-|-
G|-17-----------17-16-17--------17-14-16-17-------------17----|-
D|------------------------------------------------------------|-
A|------------------------------------------------------------|-
E|------------------------------------------------------------|-

http://www.guitartabcreator.com
Guitar Tab Creator is intended to store guitar tab created through the tool. It currently does not support in-line text editing. Any text you place in here will be lost. If you need to comment on your tab, please use the "Tab Notes" section located below.