Sound will begin in 5 seconds

Forrest Gump

Chords
01234567891011121314151617181920212223
E
B
G
D
A
E
B
0 1 2 3 4 5 6 7 8 9 10 11 12 13 14 15 16 17 18 19 20 21 22 23
Song Science #1: How Pros Use 6 Chords to Write Hit Songs
(/) Slide Up  (\) Slide Down  (h) Hammer On  (p) Pull Off  (b) Bend (r) Release (v) Vibrato

Stave 1:

E|-----------|-----------|-----------|-----------|-----------------|-
B|---5-5-5-5-|---5-5-5-5-|---5-5-5-5-|---5-5-5-5-|-2-3-5-5-----2-5-|-
G|-----------|-----------|-----------|-----------|-2-----------2---|-
D|-7---------|-7---------|-7---------|-7---------|-2-2-------2-2---|-
A|-----------|-----------|-----------|-----------|-0-------0---0---|-
E|-----------|-----------|-----------|-----------|-----------------|-

Stave 2:

E|-----5-----------------|-----2-2-------2-|-----------------|-----2-2-------2-|-
B|-------5-------2-------|-3-5---------3-3-|-------3---3-----|-3-5---3-----3---|-
G|-------------2---2---2-|-----2-------2---|-----2-----------|-----2-------2---|-
D|---2-------2-------2---|---4-------4-----|---4-------------|---4-------4-----|-
A|-0-------0-------------|-0-------0-------|-0-------0---5\4\|-2-------2-------|-
E|-----------------------|-----------------|-----------------|-----------------|-

Stave 3:

E|-----7-4-------|-----------5---|-------5-------|------------------------|-
B|-----7-------5-|-----5-5---5-5-|-----5-----5---|----9--10-10---------10-|-
G|---4-------4---|-----6-6---6-6-|---6---------6-|-11----11-11------11----|-
D|---------------|-6-7-----------|---------7-----|----11---------11-------|-
A|---------------|---7-----0-----|-0-------------|-9-----------9----------|-
E|-0-------0-----|-0-------------|---------------|------------------------|-

Stave 4:

E|--------------------|-----2-2-------2-|-------2-------|-----2-2---------|-
B|---------10---------|-3-5-3-3-----3---|-----3---------|-3-5-3-3-----3---|-
G|------11---------11-|-2---------2-----|---2-------2---|-2-----------2---|-
D|---11---------11----|-0-------0-------|-0-------0-----|-4-4-------4---4-|-
A|-9----------9-------|-----------------|-------------4-|-2-------2-------|-
E|--------------------|-----------------|---------------|-----------------|-

Stave 5:

E|---------------|-----------|-----------|-----------12------|---------------|-
B|-0---2-3-----0-|-----------|-----------|-----10-12----12---|---------------|-
G|-----1-------1-|---5-5-5-5-|---5-5-5-5-|---9---------------|---------------|-
D|---2---2-----2-|-----------|-----------|-------------------|-7-------------|-
A|-----------2---|-7---------|-7---------|-0---------------7-|---------------|-
E|-0-------0-----|-----------|-----------|-------------------|---------------|-

http://www.guitartabcreator.com
Guitar Tab Creator is intended to store guitar tab created through the tool. It currently does not support in-line text editing. Any text you place in here will be lost. If you need to comment on your tab, please use the "Tab Notes" section located below.